Log in

One click and you are in

Login with Facebook Login with Google

Why sign up and log in

Guitar Tabs Explorer
The Offspring tabs for Leave it behind

Guitar tabs with lyrics

This song was originally transcribed by Peter Ferragine but i found out the
pattern to the song and types it all out. So here it is, hopefully wit no
mistakes. Enjoy!!

The Offspring
Ixnay On The Homebre
Leave It Behind
Track 6

: - let ring
pm - palm mute
x - scratch
* - repeat 8 times
intro
guitar 1
|----0-2-2-3-2-0----0-2-2-3-2-0----0-2-2-3-2-0----0-2-2-3-2-0--|
|--------------------------------------------------------------|
|--------------------------------------------------------------|
|--------------------------------------------------------------|
|--------------------------------------------------------------|
|-0:-------------0:-------------0:-------------0:--------------|
                 >              >              >
guitar 2
Wait till guitar 2 plays the piece before the second arrow, then play.
                   |------------------------------|
                      |------------------------------|
                      |---9----9--9-9---9----9--9-9--|
                      |-2-9-9--9--9-9-2-9-9--9--9-9--|
                      |-2-7-9--7--7-7-2-7-9--7--7-7--|
                      |-0---7---------0---7----------|


verse - guitar 1

pm
|---------------------------------------------------------------------------|
|---------------------------------------------------------------------------|
|-9x-9x-9x-9x-7x-7x-9x-9x--9x-9x-9x-9x-7x-7x--------9x-9x-9x-9x-7x-7x-9x-9x-|
|-9x-9x-9x-9x-7x-7x-9x-9x--9x-9x-9x-9x-7x-7x-9x-9x--9x-9x-9x-9x-7x-7x-9x-9x-|
|-7x-7x-7x-7x-5x-5x-7x-7x--7x-7x-7x-7x-5x-5x-9x-9x--7x-7x-7x-7x-5x-5x-7x-7x-|
|--------------------------------------------7x-7x--------------------------|

chorus - guitar 1

|------------------------|
|------------------------|
|-5-----7-9*--5-----7-9--|
|-5-3-5-7-9*--5-3-5-7-9--|
|-3-3-5-5-7*--3-3-5-5-7--|
|---1-3---------1-3------|
                      Play both guitars together
guitar 1                            guitar 2
|----0-2-2-3-2-0----0-2-2-3-2-0--| |------------------------------|
|--------------------------------| |------------------------------|
|--------------------------------| |---9----9--9-9---9----9--9-9--|
|--------------------------------| |-2-9-9--9--9-9-2-9-9--9--9-9--|
|--------------------------------| |-2-7-9--7--7-7-2-7-9--7--7-7--|
|-0:-------------0:--------------| |-0---7---------0---7----------|




guitar 1

 pm
|---------------------------------------------------------------------------|
|---------------------------------------------------------------------------|
|-9x-9x-9x-9x-7x-7x-9x-9x--9x-9x-9x-9x-7x-7x--------9x-9x-9x-9x-7x-7x-9x-9x-|
|-9x-9x-9x-9x-7x-7x-9x-9x--9x-9x-9x-9x-7x-7x-9x-9x--9x-9x-9x-9x-7x-7x-9x-9x-|
|-7x-7x-7x-7x-5x-5x-7x-7x--7x-7x-7x-7x-5x-5x-9x-9x--7x-7x-7x-7x-5x-5x-7x-7x-|
|--------------------------------------------7x-7x--------------------------|


chorus - guitar 1

|------------------------|
|------------------------|
|-5-----7-9*--5-----7-9--|
|-5-3-5-7-9*--5-3-5-7-9--|
|-3-3-5-5-7*--3-3-5-5-7--|
|---1-3---------1-3------|


bridge - guitar 1

|-------------------------------------------------|
|-------------------------------------------------|
|-------------7-7-7-7-7-7-9-9-9-9-9-9-5-5-5-5-5-5-|
|-5-5-5-5-5-5-7-7-7-7-7-7-9-9-9-9-9-9-5-5-5-5-5-5-|
|-5-5-5-5-5-5-5-5-5-5-5-5-7-7-7-7-7-7-3-3-3-3-3-3-|
|-3-3-3-3-3-3-------------------------------------|

|-------------------------------------------------| |-----|
|-------------------------------------------------| |-----|
|-------------7-7-7-7-7-7-9-9-9-9-9-9-5-5-5-7-7-7-| |--9--| - end
|-5-5-5-5-5-5-7-7-7-7-7-7-9-9-9-9-9-9-5-5-5-7-7-7-| |--9--| - note
|-5-5-5-5-5-5-5-5-5-5-5-5-7-7-7-7-7-7-3-3-3-5-5-5-| |--7--|
|-3-3-3-3-3-3-------------------------------------| |-----|

guitar 1
|----0-2-2-3-2-0----0-2-2-3-2-0----0-2-2-3-2-0----0-2-2-3-2-0--|
|--------------------------------------------------------------|
|--------------------------------------------------------------|
|--------------------------------------------------------------|
|--------------------------------------------------------------|
|-0:-------------0:-------------0:-------------0:--------------|
guitar 2
|--------------------------------------------------------|

|--------------------------------------------------------|
|---9----9--9-9---9----9--9-9-9---9----9-9---9----9--9-9-|
|-2-9-9--9--9-9-2-9-9--9--9-9---2-9-9--9-9-2-9-9--9--9-9-|
|-2-7-9--7--7-7-2-7-9--7--7-7---2-7-9--7-7-2-7-9--7--7-7-|
|-0---7---------0---7-----------0---7------0---7---------|




guitar 1

 pm
|---------------------------------------------------------------------------|
|---------------------------------------------------------------------------|
|-9x-9x-9x-9x-7x-7x-9x-9x--9x-9x-9x-9x-7x-7x--------9x-9x-9x-9x-7x-7x-9x-9x-|
|-9x-9x-9x-9x-7x-7x-9x-9x--9x-9x-9x-9x-7x-7x-9x-9x--9x-9x-9x-9x-7x-7x-9x-9x-|
|-7x-7x-7x-7x-5x-5x-7x-7x--7x-7x-7x-7x-5x-5x-9x-9x--7x-7x-7x-7x-5x-5x-7x-7x-|
|--------------------------------------------7x-7x--------------------------|


chorus - guitar 1

|------------------------|
|------------------------|
|-5-----7-9*--5-----7-9--|
|-5-3-5-7-9*--5-3-5-7-9--|
|-3-3-5-5-7*--3-3-5-5-7--|
|---1-3---------1-3------|


bridge - guitar 1

|-------------------------------------------------|
|-------------------------------------------------|
|-------------7-7-7-7-7-7-9-9-9-9-9-9-5-5-5-5-5-5-|
|-5-5-5-5-5-5-7-7-7-7-7-7-9-9-9-9-9-9-5-5-5-5-5-5-|
|-5-5-5-5-5-5-5-5-5-5-5-5-7-7-7-7-7-7-3-3-3-3-3-3-|
|-3-3-3-3-3-3-------------------------------------|

|-------------------------------------------------| |-----|
|-------------------------------------------------| |-----|
|-------------7-7-7-7-7-7-9-9-9-9-9-9-5-5-5-7-7-7-| |--9--| - end
|-5-5-5-5-5-5-7-7-7-7-7-7-9-9-9-9-9-9-5-5-5-7-7-7-| |--9--| - note
|-5-5-5-5-5-5-5-5-5-5-5-5-7-7-7-7-7-7-3-3-3-5-5-5-| |--7--|
|-3-3-3-3-3-3-------------------------------------| |-----|

guitar 1
|----0-2-2-3-2-0----0-2-2-3-2-0----0-2-2-3-2-0----0-2-2-3-2-0--|
|--------------------------------------------------------------|
|--------------------------------------------------------------|
|--------------------------------------------------------------|
|--------------------------------------------------------------|
|-0:-------------0:-------------0:-------------0:--------------|
guitar 2
|--------------------------------------------------------|

|--------------------------------------------------------|
|---9----9--9-9---9----9--9-9-9---9----9-9---9----9--9-9-|
|-2-9-9--9--9-9-2-9-9--9--9-9---2-9-9--9-9-2-9-9--9--9-9-|
|-2-7-9--7--7-7-2-7-9--7--7-7---2-7-9--7-7-2-7-9--7--7-7-|
|-0---7---------0---7-----------0---7------0---7---------|





bridge - guitar 1

|-------------------------------------------------|
|-------------------------------------------------|
|-------------7-7-7-7-7-7-9-9-9-9-9-9-5-5-5-5-5-5-|
|-5-5-5-5-5-5-7-7-7-7-7-7-9-9-9-9-9-9-5-5-5-5-5-5-|
|-5-5-5-5-5-5-5-5-5-5-5-5-7-7-7-7-7-7-3-3-3-3-3-3-|
|-3-3-3-3-3-3-------------------------------------|

|-------------------------------------------------| |-----|
|-------------------------------------------------| |-----|
|-------------7-7-7-7-7-7-9-9-9-9-9-9-5-5-5-7-7-7-| |--9--| - end
|-5-5-5-5-5-5-7-7-7-7-7-7-9-9-9-9-9-9-5-5-5-7-7-7-| |--9--| - note
|-5-5-5-5-5-5-5-5-5-5-5-5-7-7-7-7-7-7-3-3-3-5-5-5-| |--7--|
|-3-3-3-3-3-3-------------------------------------| |-----|

guitar 1
|----0-2-2-3-2-0----0-2-2-3-2-0----0-2-2-3-2-0----0-2-2-3-2-0--|
|--------------------------------------------------------------|
|--------------------------------------------------------------|
|--------------------------------------------------------------|
|--------------------------------------------------------------|
|-0:-------------0:-------------0:-------------0:--------------|
guitar 2
|--------------------------------------------------------|

|--------------------------------------------------------|
|---9----9--9-9---9----9--9-9-9---9----9-9---9----9--9-9-|
|-2-9-9--9--9-9-2-9-9--9--9-9---2-9-9--9-9-2-9-9--9--9-9-|
|-2-7-9--7--7-7-2-7-9--7--7-7---2-7-9--7-7-2-7-9--7--7-7-|
|-0---7---------0---7-----------0---7------0---7---------|

That's the whole thing written out for you. Enjoy!

Almost there ...

Sign in to get your own page with links to favourite songs and more. You are just one click away...

Login with Facebook Login with Google