Log in

One click and you are in

Login with Facebook Login with Google

Why sign up and log in

Guitar Tabs Explorer
The Offspring chords for Keep em seperated

Guitar chords with lyrics

Offspring
Keep 'Em Seperated

tabbed by Chad Kimsey

this is a rather simple song to play, at the very beginning, just hit
a few chimes along the 12th fret, then start with this:

Here are the symbols i used:
\ slide
b bend
r release
~ vibrato
INTRO Riff                         PRE VERSE
keep em seperated...  repeat 8x    4x
e|-------------------------------|-----------------------------------|
b|-------------------------------|-----------------------------------|
g|----------------------7--------|-----------------------------------|
d|-------------------9--7--4\7---|--------2-3br-2--------------------|
a|-------------------9--5--4\7---|--2h5-5---------5-2br~-2-3-2-------|
A chord diagramE MajorE|-------------------7-----2\5---|-----------------------------------|

                                  VERSE
                                  like the latest fashion...
  end 4th like this               pm...through verse......
e|--------------------------------|--------------------------------|
b|--------------------------------|--------------------------------|
g|--------------------------------|-----------------------7--------|
d|--------2-3br-2-----------------|-9-----4-----7---9-----7---4\7--|
a|--2h5-5---------5-2-------------|-9-----4-----7---9-----5---4\7--|
A chord diagramE MajorE|--------------------------------|-7-x-x-2-x-x-5-x-7-x-x---x-2\5--|


PRE CHORUS

e|--------------------------------|--------------------------------|
b|--------------------------------|--------------------------------|
g|---9-x-x-12-x-x-11-x------------|---9-x-x-12-x-x-11-x------------|
d|---9-x-x-12-x-x-11-x-9----------|---9-x-x-12-x-x-11-x-9----------|
a|---7-x-x-10-x-x-9--x-9----------|---7-x-x-10-x-x-9--x-9----------|
A chord diagramE MajorE|---------------------7----------|---------------------7----------|


                                   they're gonna patch it up.....
e|--------------------------------|--------------------------------|
b|--------------------------------|--------------------------------|
g|-----------------------7--------|-11-----------------------------|
d|-9-----4-----7---9-----7---4\7--|-11-----------------------------|
a|-9-----4-----7---9-----5---4\7--|-9------------------------------|
A chord diagramE MajorE|-7-x-x-2-x-x-5-x-7-x-x---x-2\5--|--------------------------------|


CHORUS
same as intro until after second pause, it goes like this
                                   under 18....
e|--------------------------------|--------------------------------|
b|--------------------------------|--------------------------------|
g|----7----------7----------------|-9~~---5~~----------------------|
d|-9--7--4\7--9--7--4\7-----------|-9~~---5~~----------------------|
a|-9--5--4\7--9--5--4\7-----------|-7~~---3~~----------------------|
A chord diagramE MajorE|-7-----2\5--7-----2\5-----------|--------------------------------|


hey....       pm------>           pause
e|--------------------------------|--------------------------------|
b|--------------------------------|--------------------------------|
g|----7-------------------7-------|--------------------------------|
d|-9--7---4\7-4-4-4-4-7-9-7-4\7-9-|--------------------------------|
a|-9--5---4\7-4-4-4-4-7-9-5-4\7-9-|--------------------------------|
A chord diagramE MajorE|-7------2\5-2-2-2-2-5-7---2\5-7-|--------------------------------|


go back to the pre verse riff and repeat tab
any questions or comments are welcome at:
fa18hornet_18@2hotmail.com

if you see anything that is not right or you could tab better, let me know

Almost there ...

Sign in to get your own page with links to favourite songs and more. You are just one click away...

Login with Facebook Login with Google