Log in

One click and you are in

Login with Facebook Login with Google

Why sign up and log in

Guitar Tabs Explorer
The Offspring tabs for Itll be a long time

Guitar tabs

Album: Smash
As tabbed by Joe Muggah


Verse
e---------------------------------------------------------
B---------------------------------------------------------
G-------------------------------------12-12-12-12---------
D--12-12---10-12-12---12-10-10-10-10--12-12-12-12--12-12--
A--12-12---10-12-12---12-10-10-10-10--10-10-10-10--12-12--
E--10-10----8-10-10---10--8--8--8--8---------------10-10--
("All this time...")
Pre-Chorus
e---------------------------------------------------------
B---------------------------------------------------------
G---------------------------------------------------------
D--10/12-12m-12m-12m-12m-12m-12m-12m----------10-10-10-10-
A--10/12-12m-12m-12m-12m-12m-12m-12m-(all x2)-10-10-10-10-
E---8/10-12m-10m-10m-10m-10m-10m-10m-----------8--8--8--8-
("Superpowers flex their wings..,")

(continued)
e---------------------------------------------------------
B---------------------------------------------------------
G--12-12-12-12--------------------------------------------
D--12-12-12-12--10/12-12m-12m-12m-12m-12m-12m-12m---------
A--10-10-10-10--10/12-12m-12m-12m-12m-12m-12m-12m---------
E----------------8/10-12m-10m-10m-10m-10m-10m-10m---------

(continued)
e---------------------------------------------------------
B---------------------------------------------------------
G---------------------------------------------------------
D--10/12-12m-12m-12m-12m-12m-12m-12m----------10-10-10-10-
A--10/12-12m-12m-12m-12m-12m-12m-12m-(all x2)-10-10-10-10-
E---8/10-12m-10m-10m-10m-10m-10m-10m-----------8--8--8--8-

(continued)
e---------------------------------------------------------
B---------------------------------------------------------
G---------------------------------------------------------
D--10-10-10-10--7-7-7-7-7-7--10---------------------------
A--10-10-10-10--7-7-7-7-7-7--10---------------------------
E---8--8--8--8--5-5-5-5-5-5---8---------------------------

Chorus
e---------------------------------------------------------
B---------------------------------------------------------
G---------------10----------------------------------------
D--12-12-10-12--10--10-10-10-10--12-12-12-12--8-8-8-8-----
A--12-12-10-12---8--10-10-10-10--12-12-12-12--8-8-8-8-----
E--10-10--8-10-------8--8--8--8--10-10-10-10--6-6-6-6-----
("When will the world...")

(continued)
e---------------------------------------------------------
B---------------------------------------------------------
G---------------------------------------------------------
D--10-10-10-10--10--7--12-12-12-12------------------------
A--10-10-10-10--10--7--12-12-12-12------------------------
E---8--8--8--8---8--5--10-10-10-10------------------------

Post-chorus
e---------------------------------------------------------
B---------------------------------------------------------
G---------------------------------------------------------
D--8-8-8-8--10-10-10-10--10--7--12-12-12-12--8-8-8-8------
A--8-8-8-8--10-10-10-10--10--7--12-12-12-12--8-8-8-8------
E--6-6-6-6---8--8--8--8---8--5--10-10-10-10--6-6-6-6------

(continued)
e---------------------------------------------------------
B---------------------------------------------------------
G---------------10----------------------------------------
D--10-10-10-10--10--10--12--10-----10--7------------------
A--10-10-10-10---8--10--12--10-----10--7------------------
E---8--8--8--8-------8--10---8------8--5------------------


Bridge 1
e---------------------------------------------------------
B---------------------------------------------------------
G-------------------12-12---------------------------------
D--12-12--10-10-10--12-12--12-12-12-----------------------
A--12-12--10-10-10--10-10--12-12-12-----------------------
E--10-10---8--8--8---------10-10-10-----------------------
("Well is they tried...")


Bridge 2 (palm muted and gradually louder)
e---------------------------------------------------------
B---------------------------------------------------------
G---------------12-12-12-12-------------------------------
D--10-10-10-10--12-12-12-12--12-12-12-12-12-12-12-12------
A--10-10-10-10--10-10-10-10--12-12-12-12-12-12-12-12------
E---8--8--8--8---------------10-10-10-10-10-10-10-10------
("But you know it's not fooling...")


Solo
e---------------------------------------------------------
B--6-6--5-5--6-6--6-6--5-5--6-6--5-5--6-6--5-5------------
G--7-7--7-7--7-7--7-7--7-7--7-7--5-5--5-5--5-5------------
D---------------------------------------------------------
A---------------------------------------------------------
E---------------------------------------------------------


Outro
e---------------------------------------------------------
B---------------------------------------------------------
G---------------------------------------------------------
D--10--12-12--10--12-12-----------------------------------
A--10--12-12--10--12-12-----------------------------------
E---8--10-10---8--10-10-----------------------------------


Verse

Pre-Chorus

Chorus
Post-Chorus

Verse

Pre-Chorus

Chorus
Post-chorus

Bridge 1

Bridge 2

Verse, Solo

Pre-Chorus

Chorus
Post-Chorus

Outro

Other versions of Itll Be A Long Time

Itll be a long timeChords

Almost there ...

Sign in to get your own page with links to favourite songs and more. You are just one click away...

Login with Facebook Login with Google