Log in

One click and you are in

Login with Facebook Login with Google

Why sign up and log in

Guitar Tabs Explorer
The Offspring tabs for Intermission

Guitar tabs

offspring
   intermission
   ixnay on the hombre
   tabbed by barry greer: greer@carryduff.co.uk

   feel free to make any corrections this is probably wrong

         welcome to intermission

e|-------------------------| |-----------------------|
b|-------------------------| |-----------------------|
g|-------------------------| |-----------------------|
d|-4--1--3--1--444--1--3---| |-3--0--2--0-333--0--2--|
a|-------------------------| |-----------------------|
e|-------------------------| |-----------------------|

e|----------------------------|
b|----------------------------|
g|-----------------------2--4-|
d|-4--1--3--1--444--1--3------|yeah intermission
a|----------------------------|
e|----------------------------|

e|-------------------------| |-----------------------|
b|-------------------------| |-----------------------|
g|-------------------------| |-----------------------|
d|-8--5--7--5--888--5--7---| |-7--4--6--4--777--4--6-|
a|-------------------------| |-----------------------|
e|-------------------------| |-----------------------|

e|----------------------------|
b|----------------------------|
g|-----------------------2--4-|
d|-5--2--4--2--555--2--4------|aahh!
a|----------------------------|
e|----------------------------|

  you can work out the rest thats the basis

  ok ya ya ya ya ya

Almost there ...

Sign in to get your own page with links to favourite songs and more. You are just one click away...

Login with Facebook Login with Google