Log in

One click and you are in

Login with Facebook Login with Google

Why sign up and log in

Guitar Tabs Explorer
The Offspring bass tabs for Hit that live

Bass tabs with lyrics

| The Offspring- Hit That |
+++++++++++++++++++++++++++


This is the live version from the Happy Hour CD!
"Thats the way things go..."


Tuning: EADG



Intro
1.
G|----------------------|
D|----------------------|
A|----------------------|
E|-3~----5~----0x-0x-0x-|

2.
G|-------------------------------------------|
D|-------------------------------------------|
A|--7-7-7-7-7-7-2-1-0----7-7-7-7-7-7-2-1-0---|--x2
E|-0-0-0-0-0-0--------3-0-0-0-0-0-0--------3-|


Verse
"The winds of fortune..."
3.
G|-------------------------------------------|
D|-------------------------------------------|
A|--7-7-7-7-7-7-2-1-0----7-7-7-7-7-7-2-1-0---|
E|-0-0-0-0-0-0--------3-0-0-0-0-0-0--------3-|

"She had a kid now..."
4.
G|-------------------------------------------|
D|----------------------2-2-2-2--------------|
A|--7-7-7-7-7-7-2-1-0------------7-7-2-1-0---|
E|-0-0-0-0-0-0--------3-3-3-3-3-5-5--------3-|

Chorus
"Im on a roll..."
5.
G|--------------------------------------------------------------------|
D|-------------------5-5-5-5-7-7-7-7------------------5-5-5-5-7-7-7-7-|
A|--7-7-7-7-7-7-7-7------------------7-7-7-7-7-7-7-7------------------|
E|-0-0-0-0-0-0-0-0--3-3-3-3-5-5-5-5-0-0-0-0-0-0-0-0--3-3-3-3-5-5-5-5--|

"All the world is getting with..."
6.
G|------------------------------------------------------------------------|
D|------------------------------------------------------------------------|
A|--7-7-7-7-7-7-7-7-3-3-3-3-0-0-0-0--7-7-7-7-2-2-2-2----------------------|
E|-0-0-0-0-0-0-0-0------------------0-0-0-0----------3~----5~----0x-0x-0x-|


Outro
7.
G|-------------------------------------------|
D|-------------------------------------------|
A|--7-7-7-7-7-7-2-1-0----7-7-7-7-7-7-2-1-0---|--x2
E|-0-0-0-0-0-0--------3-0-0-0-0-0-0--------3-|


Verse
"What was a family..."
8.
G|-------------------------------------------|
D|-------------------------------------------|
A|-----------------------------------2-1-0---|
E|-0---------------------------------------3-|

"Sex is a weapon..."
9.
G|-------------------------------------------|
D|----------------------2-2-2-2--------------|
A|--7-7-7-7-7-7-2-1-0------------7-7-2-1-0---|
E|-0-0-0-0-0-0--------3-3-3-3-3-5-5--------3-|


Chorus
"Im on a run..."
10.
G|--------------------------------------------------------------------|
D|-------------------5-5-5-5-7-7-7-7------------------5-5-5-5-7-7-7-7-|
A|--7-7-7-7-7-7-7-7------------------7-7-7-7-7-7-7-7------------------|
E|-0-0-0-0-0-0-0-0--3-3-3-3-5-5-5-5-0-0-0-0-0-0-0-0--3-3-3-3-5-5-5-5--|

"Everybody is getting with..."
11.
G|------------------------------------------------------------------------|
D|------------------------------------------------------------------------|
A|--7-7-7-7-7-7-7-7-3-3-3-3-0-0-0-0--7-7-7-7-2-2-2-2----------------------|
E|-0-0-0-0-0-0-0-0------------------0-0-0-0----------3~----5~----0x-0x-0x-|


Bridge
"Well it winds up..."
12.
G|---------------------------------------------|
D|---------------------------------------------|
A|-7~x---------------------------------2-1-0---|
E|------------------------0x-----------------3-|

"And it dont stop..."
13.
G|-------------------------------------------|
D|----------------------2-2-2-2--------------|
A|--7-7-7-7-7-7-2-1-0------------7-7-2-1-0---|
E|-0-0-0-0-0-0--------3-3-3-3-3-5-5--------3-|


Chorus
"Im on a roll..."
14.
G|--------------------------------------------------------------------|
D|-------------------5-5-5-5-7-7-7-7------------------5-5-5-5-7-7-7-7-|
A|--7-7-7-7-7-7-7-7------------------7-7-7-7-7-7-7-7------------------|
E|-0-0-0-0-0-0-0-0--3-3-3-3-5-5-5-5-0-0-0-0-0-0-0-0--3-3-3-3-5-5-5-5--|

"Everybody is getting with..."
15.
G|------------------------------------------------------------------------|
D|------------------------------------------------------------------------|
A|--7-7-7-7-7-7-7-7-3-3-3-3-0-0-0-0--7-7-7-7-2-2-2-2----------------------|
E|-0-0-0-0-0-0-0-0------------------0-0-0-0----------3~----5~----0x-0x-0x-|


Please rate thanks!!


Lyrics:

The winds of fortune
Don't blow the same
She had to get out
And make a change
She had a kid now
But much too young
That baby daddy's out having fun

He's saying
I'm on a roll
With all the girls I know
His baby momma
She ain't so slow
He's saying
I'm on a roll
With all the girls I know
I know you wanna hit that
I know you wanna hit that
All the world is gettin' with, I say
Consequences are a lot, but hey
That's the way it
That's the way things go

What was family
Is now a shell
We're raising kids now
Who raise themselves
Sex is a weapon
And it's like a drug
It gets him right into that grave that he just dug

She's saying
I'm on the run
I'm chasing guys for fun
Her baby daddy
It ain't his only one
She's saying
I'm on the run
I'm chasing guys for fun
I know you wanna hit that
I know you wanna hit that
Everybody's gettin' with, I say
Consequences are a lot, but hey
That's the way it
That's the way things go

Well it winds up
Broken up
Really such a shame
But why not
Take a chance
Everything's a game
And it don't stop
Hooking up
Nothing's gonna change
The more he's trying
The more he's buying


+++++++++++++++++++++++++++++++++
| Raileff            |
| Underground__Dora@Hotmail.Com |

Almost there ...

Sign in to get your own page with links to favourite songs and more. You are just one click away...

Login with Facebook Login with Google