Log in

One click and you are in

Login with Facebook Login with Google

Why sign up and log in

Guitar Tabs Explorer
The Offspring tabs for Hit that  with cool main phaser

Hit That With Cool Main Phaser tab by The Offspring

The Offspring tabs for Hit that  with cool main phaser

Guitar tabs

most people think they use a sythisiser for the really cool part of this song but its just
maximum phaser mode on a big amp.


Intro:

|------------------------------------------|
|------------------------------------------|
|------------------------------------------|
|--5-----7----2-2-2------------------------|
|--5-----7----2-2-2------------------------|
|--3-----5----0-0-0------------------------|

Cool phaser part:
|---------0--------------------------------|
|-0-3-0-3----------------------------------|x2
|------------------------------------------|
|-----------2/1/0--------------------------|
|------------------------------------------|
|------------------------------------------|

Then:    Let ring|....|
|---------0-0-3-3-0------------------------|
|-0-3-0-3----------------------------------|
|------------------------------------------|
|------------------------------------------|
|------------------------------------------|
|------------------------------------------|

thats all i know for questions or comments e-mail me at ps2skater666@hotmail.com

Almost there ...

Sign in to get your own page with links to favourite songs and more. You are just one click away...

Login with Facebook Login with Google