Log in

One click and you are in

Login with Facebook Login with Google

Why sign up and log in

Guitar Tabs Explorer
The Offspring tabs for Heavy metal

Guitar tabs

Heavy Metal by the OFFSPRING

This is a little "song" the Offspring played at their concert
for the German tv station "WDR".

Have fun!
Intro:

 ------------------------------
 ------------------------------
 ------------------------------
 ------------------------------
 ------------------------------
 -0b2~~~~~~~~~r1~~~~~~~r0~~~~--


Main riff:

   1  +  2  +  3  +  4  +  1  +  2  +  3  +  4  +
 -------------------------------------------------
 -------------------------------------------------
 --------------7~~~~~~--7--7-----9-----9~~~~~~--9-
 --9~~~~~~~~~--7~~~~~~--7--7-----9-----9~~~~~~--9-
 --9~~~~~~~~~--5~~~~~~--5--5-----7-----7~~~~~~--7-
 --7~~~~~~~~~-------------------------------------


   1  +  2  +  3  +  4  +  1  +  2  +  3  +  4  +
 -------------------------------------------------
 -------------------------------------------------
 -12\11\12/11\12/11--9--9--7-----9-----9~~~~~~~~~-
 -12\11\12/11\12/11--9--9--7-----9-----9~~~~~~~~~-
 -10\-9\10/-9\10/-9--7--7--5-----7-----7~~~~~~~~~-
 -------------------------------------------------

song structure:

guitar 1 plays the intro
guitar 1 plays the main riff
2x main riff with 2 guitars and drums

guitar 1: mid distortion
guitar 2: heavy distortion


 If you have any questions, comments or corrections
 send a mail to JohnnyC@gmx.de

Almost there ...

Sign in to get your own page with links to favourite songs and more. You are just one click away...

Login with Facebook Login with Google