Log in

One click and you are in

Login with Facebook Login with Google

Why sign up and log in

Guitar Tabs Explorer
The Offspring tabs for Have you ever

Guitar tabs

"Have You Ever" by The Offspring
from the CD: Americano
Transcribed by Eric Han


Standard Tuning
Heavy on the Distortion.

Intro
    A chord diagramE5E5
g|--9-x-x-x-x-x-x-|
d|--9-x-x-x-x-x-x-|     6x
a|--7-x-x-x-x-x-x-|
A chord diagramE MajorE|----------------|
    A chord diagramE5E5
g|--9-9-9-9-9-9-9-|
d|--9-9-9-9-9-9-9-|     Get louder as you play these.
a|--7-7-7-7-7-7-7-|
A chord diagramE MajorE|----------------|


Chorus I
    A chord diagramE5E5    A chord diagramE5E5    A chord diagramG5G5    A chord diagramD5D5
g|--9--|--9--|-----|--7--|
d|--9--|--9--|--5--|--7--|     2x
a|--7--|--7--|--5--|--5--|
A chord diagramE MajorE|-----|-----|--3--|-----|


Verse
2x
                                                                     A chord diagramA5A5    A chord diagramC5C5
A chord diagramB5B5
e|--------------------|----------------------|--------------------|-----------
b|--------------------|----------------------|--------------------|-----------
g|--------------------|--12-11-12--12-11-12--|--11-9-11--11-9-11--|-----------
d|--------------------|----------------------|--------------------|--7-7-7-10-9
a|--10-9-10--10-9-10--|----------------------|--------------------|--7-7-7-10-9
A chord diagramE MajorE|--------------------|----------------------|--------------------|--5-5-5-8--7


Chorus II
    A chord diagramE5E5    A chord diagramC5C5    A chord diagramG5G5    A chord diagramD5D5
g|--9--|--5--|-----|--7--|
d|--9--|--5--|--5--|--7--|     4x
a|--7--|--3--|--5--|--5--|
A chord diagramE MajorE|-----|-----|--3--|-----|


Chorus III
    A chord diagramE5E5
g|--9--|
d|--9--|     A chord diagramA augmentedA lot of times.  Play gradually softer.
a|--7--|
A chord diagramE MajorE|-----|

end with...
    A chord diagramE5E5
g|-->--|
d|--2--|     >=accent (play loud)
a|--2--|
A chord diagramE MajorE|--0--|     (blend in Chorus III after you play Chorus II 1 1/2 times)


Bridge I

pick scrape then...
    A chord diagramE5E5    A chord diagramC5C5    A chord diagramD5D5    A chord diagramE5E5    A chord diagramC5C5    A chord diagramD5D5
g|--9--|--5--|--7--|--9--|--5--|--7--|-------------|
d|--9--|--5--|--7--|--9--|--5--|--7--|-------------|     (6x)
a|--7--|--3--|--5--|--7--|--3--|--5--|-------------|
A chord diagramE MajorE|-----|-----|-----|-----|-----|-----|--0-2-3-2-0--|


Bridge II
    A chord diagramE5E5    A chord diagramG5G5    A chord diagramD5D5
g|--9--|--5--|--7--|-------------|
d|--9--|--5--|--7--|-------------|     (2x: don't play the 0-2-3-2-0 part 2nd
a|--7--|--3--|--5--|-------------|     time)
A chord diagramE MajorE|-----|-----|-----|--0-2-3-2-0--|


Intro  (0:00)

Chorus I  (0:13)

Verse  (0:24)

Chorus II  (0:45)

Verse  (1:08)

Chorus II (1:29)
::Drums:: (sound FX)  (2:14)

Intro  (2:33)
::Bass::  (2:47)

Bridge I (3:00)

Bridge II (3:43)

In between some parts, Noodles holds the power chord before he proceeds.
Any complaints, questions, etc, e-mail me @ CLONEDYOU@AOL.COM

Other versions of Have You Ever

Have you everChords

Almost there ...

Sign in to get your own page with links to favourite songs and more. You are just one click away...

Login with Facebook Login with Google