Log in

One click and you are in

Login with Facebook Login with Google

Why sign up and log in

Guitar Tabs Explorer
The Offspring tabs for Gone away

Guitar tabs

SEVERAL VERSIONS FOLLOW:


From bakepotato@marsweb.com Wed Apr  9 12:48:24 1997

Okie Dokie.  Got this tab figured out.  Only took me about 10 minutes so
I'm sure that you won't have much trouble figuring it out with the tab.

This one's:
by the Offspring
called Gone Away
transcribed by Andrew Blackman
off the album Ixnay on the Hombre

Three main part to it:
Intro/Chorus:

e----------------------------------------
B----------------------------------------
G-9-9-9-9-12-12-12-12-14-14-14-14-9-9-9-9
D-9-9-9-9-12-12-12-12-14-14-14-14-9-9-9-9
A-7-7-7-7-10-10-10-10-12-12-12-12-7-7-7-7
E----------------------------------------


e
A chord diagramBB
G-------9---------7---------7-9--------
D-7h9h7-----7h9p7-----7h9p7-----7-7-9-7
A chord diagramA augmentedA
A chord diagramE MajorE


e
B------12------10------10--10/12--------
G-9h11-----7h9-----7h9-----------12-11-9
A chord diagramD MajorD
A chord diagramA augmentedA
A chord diagramE MajorE

e
B------12------10------10--------------
G-9h11-----7h9-----7h9-----------------
D---------------------------9-9-9-9-9-9
A---------------------------7-7-7-7-7-7
A chord diagramE MajorE

and then there's a little clean part about 2:38 that just is the

chorus.  We'll call that PART 4.

alright here's the song order.

4 measure drum


intro x 2

post-chorus x 1

bass part


chorus x 4

bass part


pre-chorus x 1


chorus x 4

part 4 x 1

post-chorus x 1

a few crunchy A chord diagramE MajorE powerchords (7th fret) as an intro to the chorus


chorus x 2


pre-chorus x 1


chorus x 5


that's it....any  's or comments....e-mail me at kaaba@hotmail.com
or methamphetamine@rocketmail.com

Drew.

TAcos Tacos tacos.
offspring is pretty damn cool.
From fingledog@geocities.com Sun Apr 27 11:24:28 1997

19th April '97

I love this song...hope I've tabbed this right....enjoy :)

"Gone Away" by "The Offspring"
>From the album "Ixnay on the Hombre"

<Intro/Chorus> 2 times
|-------------------------------------------------------------------------|
|-------------------------------------------------------------------------|
|-10-10-10-10-10-10-10-10-----------------8-8-8-8-8-8-8-8-----------------|
|-10-10-10-10-10-10-10-10-6-6-6-6-6-6-6-6-8-8-8-8-8-8-8-8-8-8-8-8-8-8-8-8-|
|-8--8--8--8--8--8--8--8--6-6-6-6-6-6-6-6-6-6-6-6-6-6-6-6-8-8-8-8-8-8-8-8-|
|-------------------------4-4-4-4-4-4-4-4-----------------6-6-6-6-6-6-6-6-|

       |---
       |----
End on |----- and let it ring...
       |-3---
       |-3--
       |-1-

While another guitar plays...

|--------------------------------------------------------|
|--------------------------------------------------------|
|--------8\10----------6\8-----------6\8-8\10------------|
|-8-10-----------6-8--------------------------8-8-8\10/3-|
|------8-------------6--------8-10-6---------------------|
|--------------------------------------------------------|

<Verse 1> Drums and Bass only...

        Maybe ..
        I ..,
        Pulled..
        I .....

<Chorus> Play the <Intro/Chorus> twice over...

        And ..
        And ..,
        Heaven's..
        And ..
        Yeah ..,
        The ..,
        Now ....
                                                       3
Then play the <Intro/Chorus> twice again ending on the 3 and let it ring...
                                                       1
<Verse 2> Drums and Bass...

        Leaving ..
        Show ...,
        Black ..,
        Can't ..
Then comes...

<Fill>
|-----8----------6-------------6-------------\4-3-------|
|---6----------4-------------4---------6---4------4-4\6-|
|-5----------5-------------3-------------5--------------|
|-------------------------------------------------------|
|-------------------------------------------------------|
|-------------------------------------------------------|
        I ..,


|-------8---------6----------------6------------------------|
|-6---6---------4----------------4--------------------------|
|---5---------5----------------3----------------------------|
|-------------------------------------------8-8-8-8-8-8-8-8-|
|-------------------------------------------8-8-8-8-8-8-8-8-|
|-------------------------------------------6-6-6-6-6-6-6-6-|
          And .....

<Chorus> continues on from 'And it feels...'

        And ..
        Heaven's ..,
        And it ..,
        Yeah ..,
        The ..
        Now ....

<Intro/Chorus> is played twice again with all the 'gone away yeah yeah'
stuff...listen to the song to work it out :)

 ? ? ? ? ? ? ? ?
There's a quiet bit here I can't quite get yet...any ideas?
 ? ? ? ? ? ? ? ?

|----------------------------------------------------------------------------|
|----------------------------------------------------------------------------|
|--------8\10----------6\8-----------6\8-8\10--------------------------------|
|-8-10-----------6-8--------------------------8-8-8-8-8-8-8-8-8-8-8-8-8-8-8-8|
|------8-------------6--------8-10-6----------8-8-8-8-8-8-8-8-8-8-8-8-8-8-8-8|
|---------------------------------------------6-6-6-6-6-6-6-6-6-6-6-6-6-6-6-6|
                                                         From about here do
                                        the  'woah's and 'yeah' stuff again :)
                                        Played over the <Intro/Chorus> twice.

Play <Fill> again followed by the first version of the <Chorus> lyrics...

Finish by repeating 'Gone away...gone away yeah yeah' and all the 'ooh' things
                                                            8
again played over the <Intro/Chorus> 3 times...then playing 8 about 16 times
                3                                           6
and ending on a 3
                1


Well that's it as best as I make it...any corrections? mail me at

        RazorMan@DeathsDoor.com

Have fun :)
                Dave



From jcreule@centroin.com.br Sun May  4 09:46:09 1997


#----------------------------------PLEASE

NOTE---------------------------------#
interpretation of the #
research. #
#---------------------------------------------------------------------
---------##

GONE AWAY
by OFFSPRING
Taken from the album IXNAY ON THE HOMBRE
from Fernando Reule, Rio de Janeiro, Brazil


	Well, I DO like Offsrping and "Gone Away" is really a masterpiece.
That's not a difficult music to get it's chords but I hope I'm saving
some people's work, as I hope everyone to help me, fixing any errors
on this music. Thanks a lot and peace everyone!
	Fernando
	e-mail : jcreule@centroin.com.br

riffs:
   	   A chord diagramE MajorE A chord diagramBB A chord diagramG+G  A chord diagramD MajorD A chord diagramA augmentedA A chord diagramE MajorE
       A chord diagramFF  x x 10 10 8 x
       A chord diagramG#G# x x x   6 6 4
       A chord diagramD#D# x x  8  8 6 x
       A chord diagramA#A# x x x   8 8 6


Intro:

	A chord diagramFF A chord diagramG#G# A chord diagramD#D# A chord diagramA#A#  (twice)

-|-------------|-------------|--------------|
-|-------------|-------------|--------------|
-|--------9/10-|-------7/8---|-------8-10---|
-|-8/10--------|-5/6---------|-3/5--------8-|
-|------8------|-----6-------|-----6--------|
-|-------------|-------------|--------------|

Only Bass (same notes)

A chord diagramFF           A chord diagramG#G#         A chord diagramD#D#                 A chord diagramA#A#
Maybe in another life, I could find you there...(and so it goes...)


Refrain:
Distortion Guitar (same riffs)

And it ..
And ..
you've ...

End of refrain.

Putting flowers on your grave, show that I still care...(etc.)

Distortion guitar:

|------8-----|-----6-----|-----6-------|-----------|  The rest of
this "background"
|------------|-----------|-------------|-----------|  solo I still
couldn't figure
|---10-------|---8-------|---8---------|-----------|  it out.
|-10---------|-8---------|-6-----------|-----------|
|------------|-----------|-------------|-----------|
|------------|-----------|-------------|-----------|

	I ...
	And ...


Refrain.

	Well, it seems a little bit confusing 'cause I'm not used to write
tablatures, and I hope people help me, fixing this thing!!
	Peace.

	Fernando.
From NOFX3124@aol.com Sun May  4 10:49:57 1997

Title: Gone Away
Artist(s): The Offspring


This song rocks

Chourus/Intro (Each Chord is played 8 times as 8th notes)
Heavy distortion
1|----------------------------------------------------------------------------
--------------------------------------------2|---5--8--3----------------------
------------------------------------------------------------------------------
--------
3|---3--6--1-3----------------------------------------------------------------
-----------------------------------------
4|-------------1--------------------------------------------------------------
-------------------------------------------
5|----------------------------------------------------------------------------
--------------------------------------------
6|----------------------------------------------------------------------------
--------------------------------------------


Verse
Use chorus efect and low distortion
1|----------------------------------------------------------------------------
--------------------------------------------
2|----------------------------------------------------------------------------
--------------------------------------------
3|----------------------------------------------------------------------------
--------------------------------------------
4|---------5------5///8~~~----------5------------------------------5--------5/
//8-------8///3~~~--------------
5|-----3-----3---------------------3--------3---3///6~~~-----3--------3-------
-----6-----------------------------
6|----------------------------------------------------------------------------
--------------------------------------------
                                OFFSPRING TAB


   "Gone Away"

   INTRO   Riff A chord diagramA augmentedA      Riff A chord diagramBB
   A chord diagramE MajorE|--------------|---------------------------------------------------------|
   A chord diagramBB|--------------|---------------------------------------------------------|
   A chord diagramG+G|---10-13-8----|---------------------------------------------------------|
   A chord diagramD MajorD|---10-13-8-8--|------------15------------13--------13---13/15-----------|
   A chord diagramA augmentedA|---8--11-6-8--|--13/15\13-----11/13\11-----11/13\11-----------13---15\--|
   A chord diagramE MajorE|-----------6--|---------------------------------------------------------|
    Riff A chord diagramC majorC     PART 1    PART 2 (Added only on first time)
   A chord diagramE MajorE|-------------------|----------------------------|
   A chord diagramBB|-------------------|----------------------------|*
   A chord diagramG+G|---------17------15|----------------------------| Might be missing a few
   A chord diagramD MajorD|------17-------15--|-----15---15--15/18----15---| notes here ( )
   A chord diagramA augmentedA|---15-------13-----|--13----13-----------18-----|
   A chord diagramE MajorE|-------------------|----------------------------|


     VERSE 1
     Maybe ..
     Pulled ..,
     Riff A chord diagramA augmentedA
     And ..
     And ..,
        now ...
     VERSE 2
     Leaving ..
     But ..
      Riff A chord diagramC majorC
      I ..
      And ..
      Riff A chord diagramA augmentedA
      And it ..
      And ..,
         now ..
      Riff A chord diagramA augmentedA Clean w/Riff A chord diagramBB
      Riff A chord diagramA augmentedA Distorted
      Riff A chord diagramC majorC
      I ..
      And ..
      Riff A chord diagramA augmentedA
      And it ..
      And it ..,
          now ..


      Well, that's pretty much the whole song right there. I didn't put
      how many times to play and shit like that, because you should know
      how the song goes with regards to rhthym, timing, etc...
      I've got intros to some other stuff off of Ixnay On The Hombre,
      so if you want them, write to Dodderip@Erols.com.
      And if anybody has or knows the bass/guitar TAB for Lowrider, either
      the Korn version or the original, send it to me, if you could.
                                        Thanks, Paul Dodderidge
                                                Dodderip@Erols.com

     |---------------------------------------------------------------|
     |"YoU CannOT SedATe WahT yOU HAtE"  -Reverend Manson            |
     |"ArMY GrEen WaS NO SafE BEt"  -Alice In Chains                 |
     |"I am on a seceret mission to take pictures of gorrilla        |
     | genitals for the government"  -Jimmy                          |
     |---------------------------------------------------------------|                                                               |
From PAHERR@postoffice.worldnet.att.net Thu May  8 09:35:48 1997

Gone Away by Offspring
Tabbed by Chris Fargis (Chris@shadolands.net)

This is the main part...repeated throughout the song

e:---------------------------------------------------------------------------|
B:---------------------------------------------------------------------------|
G:--10-10-10-10-10-10-10-10-------------------------8--8--8--8--8--8--8--8---|
D:--10-10-10-10-10-10-10-10-6--6--6--6--6--6--6--6--8--8--8--8--8--8--8--8---|
A:--8--8--8--8--8--8--8--8--6--6--6--6--6--6--6--6--6--6--6--6--6--6--6--6---|
E:--------------------------4--4--4--4--4--4--4--4---------------------------|

e:--------------------------|
B:--------------------------|
G:--------------------------|
D:--8--8--8--8--8--8--8--8--|
A:--8--8--8--8--8--8--8--8--|
E:--6--6--6--6--6--6--6--6--|


The main part usually ends with

e:--------|
B:--------|
G:--------|
D:3-------|
A:3-------|
E:1-------|

I took this first riff from the tab at Delirium's Offspring page
http://members.aol.com/delirium4u/offspring/tabs.htm

after intro
e|---------------------------------------------------------------|
A chord diagramBB|---------------------------------------------------------------|
A chord diagramG+G|-----------10-------------8------------8--10---3-3----3-H-5----|
A chord diagramD MajorD|-8-H-10--------5-H-6---------3-H-5---------------------------3-|
A chord diagramA augmentedA|---------8-------------6------------6--------------------------|
A chord diagramE MajorE|---------------------------------------------------------------|


I figured the other riff in the song:

e:-----------------------------------------------|
B:-------13--------11-------11-----------9-8-----|
G:----10---------8--------8------10----------8-10|
D:-10---------10--------8-----------8-10---------|
A:-----------------------------------------------|
E:-----------------------------------------------|


The second time through the riff end with this:

p.m.--------------------->

e:----------------------|
B:----------------------|
G:----------------------|
D:8--8--8--8--8--8--8--8|
A:8--8--8--8--8--8--8--8|
E:6--6--6--6--6--6--6--6|
From wgriffith@uky.campus.mci.net Thu May  8 09:36:00 1997

Gone Away by Offspring
>From the album Ixnay on the Hombre
Tabbed by Mark Griffith

Standard Tuning


Intro: Drum Solo

Then play this riff 2x
w/ distortion

e|-8--8--8--8--8--8--8--8--4-4-4-4-4-4-4-4-6-6-6-6-6-6-6-6-6-6-6-6-6-6-6-6--|
A chord diagramBB|-8--8--8--8--8--8--8--8--4-4-4-4-4-4-4-4-6-6-6-6-6-6-6-6-6-6-6-6-6-6-6-6--|
A chord diagramG+G|-10-10-10-10-10-10-10-10-5-5-5-5-5-5-5-5-8-8-8-8-8-8-8-8-7-7-7-7-7-7-7-7--|
A chord diagramD MajorD|-10-10-10-10-10-10-10-10-6-6-6-6-6-6-6-6-8-8-8-8-8-8-8-8-8-8-8-8-8-8-8-8--|
A chord diagramA augmentedA|-8--8--8--8--8--8--8--8--6-6-6-6-6-6-6-6-6-6-6-6-6-6-6-6-8-8-8-8-8-8-8-8--|
A chord diagramE MajorE|-------------------------4-4-4-4-4-4-4-4-----------------6-6-6-6-6-6-6-6--|

Then play this riff 1x
w/ distortion

e|----------------------------------------------|
A chord diagramBB|----------------4-------4-6\------------------|
A chord diagramG+G|-------10-------------------------------------|
A chord diagramD MajorD|---10---------------8--------8-8-8-10\3-------|
A chord diagramA augmentedA|-8----8-----6-----6---6-----------------------|
A chord diagramE MajorE|----------4---4-------------------------------|


Verse (Maybe in another life...)
Drums and Bass Only


Chorus (And it feels like...)
Play this riff 4x
w/ distortion

e|-8--8--8--8--8--8--8--8--4-4-4-4-4-4-4-4-6-6-6-6-6-6-6-6-6-6-6-6-6-6-6-6--|
A chord diagramBB|-8--8--8--8--8--8--8--8--4-4-4-4-4-4-4-4-6-6-6-6-6-6-6-6-6-6-6-6-6-6-6-6--|
A chord diagramG+G|-10-10-10-10-10-10-10-10-5-5-5-5-5-5-5-5-8-8-8-8-8-8-8-8-7-7-7-7-7-7-7-7--|
A chord diagramD MajorD|-10-10-10-10-10-10-10-10-6-6-6-6-6-6-6-6-8-8-8-8-8-8-8-8-8-8-8-8-8-8-8-8--|
A chord diagramA augmentedA|-8--8--8--8--8--8--8--8--6-6-6-6-6-6-6-6-6-6-6-6-6-6-6-6-8-8-8-8-8-8-8-8--|
A chord diagramE MajorE|-------------------------4-4-4-4-4-4-4-4-----------------6-6-6-6-6-6-6-6--|

2nd Verse (Leaving flowers on your grave...)
Play this chord and let ring ...

e|--1--|
A chord diagramBB|--1--|
A chord diagramG+G|--2--|
A chord diagramD MajorD|--3--|
A chord diagramA augmentedA|--3--|
A chord diagramE MajorE|--1--|


Bridge (I reach to the sky...)
Play this riff 1x
w/ distortion

e|-----8-----4----6-------------------|
A chord diagramBB|----------------------6-------------|
A chord diagramG+G|------------------------------------|
A chord diagramD MajorD|--10-----6----8-----8---8-----------|
A chord diagramA augmentedA|-8------6----6-----8-----8----------|
A chord diagramE MajorE|-------4----------6-------6---------|

e|------8-----4----6-6-6-6-6-6-6-6-6---------------------------|
A chord diagramBB|-------------------6-6-6-6-6-6-6-6---------------------------|
A chord diagramG+G|----10-------------7-7-7-7-7-7-7-7---------------------------|
A chord diagramD MajorD|--10------6----8---8-8-8-8-8-8-8-8---------------------------|
A chord diagramA augmentedA|-8-------6----6----8-8-8-8-8-8-8-8---------------------------|
A chord diagramE MajorE|--------4----------6-6-6-6-6-6-6-6---------------------------|


Chorus
Play this riff 4x
w/ distortion

e|-8--8--8--8--8--8--8--8--4-4-4-4-4-4-4-4-6-6-6-6-6-6-6-6-6-6-6-6-6-6-6-6--|
A chord diagramBB|-8--8--8--8--8--8--8--8--4-4-4-4-4-4-4-4-6-6-6-6-6-6-6-6-6-6-6-6-6-6-6-6--|
A chord diagramG+G|-10-10-10-10-10-10-10-10-5-5-5-5-5-5-5-5-8-8-8-8-8-8-8-8-7-7-7-7-7-7-7-7--|
A chord diagramD MajorD|-10-10-10-10-10-10-10-10-6-6-6-6-6-6-6-6-8-8-8-8-8-8-8-8-8-8-8-8-8-8-8-8--|
A chord diagramA augmentedA|-8--8--8--8--8--8--8--8--6-6-6-6-6-6-6-6-6-6-6-6-6-6-6-6-8-8-8-8-8-8-8-8--|
A chord diagramE MajorE|-------------------------4-4-4-4-4-4-4-4-----------------6-6-6-6-6-6-6-6--|

Interlude
Play these chords and let ring...
Clean (No distortion)

e|-1--4--6--6-6-6-6--6-6-6------|
A chord diagramBB|-1--4--6--6-6-6-6--6-6-6------|
A chord diagramG+G|-2--5--8--8-8-8-7--7-7-7------|
A chord diagramD MajorD|-3--6--8--8-8-8-8--8-8-8------|
A chord diagramA augmentedA|-3--6--6--6-6-6-8--8-8-8------|
A chord diagramE MajorE|-1--4-----------6--6-6-6------|

Then play this riff 1x
w/ distortion

e|-------------------------------6-6-6-6-6-6-6-6-6-6-6-6-6-6-6--|
A chord diagramBB|----------------4-------4-6\---6-6-6-6-6-6-6-6-6-6-6-6-6-6-6--|
A chord diagramG+G|-------10----------------------7-7-7-7-7-7-7-7-7-7-7-7-7-7-7--|
A chord diagramD MajorD|---10---------------8--------8-8-8-8-8-8-8-8-8-8-8-8-8-8-8-8--|
A chord diagramA augmentedA|-8----8-----6-----6---6--------8-8-8-8-8-8-8-8-8-8-8-8-8-8-8--|
A chord diagramE MajorE|----------4---4----------------6-6-6-6-6-6-6-6-6-6-6-6-6-6-6--|


Chorus
Play this riff 2x
w/ distortion

e|-8--8--8--8--8--8--8--8--4-4-4-4-4-4-4-4-6-6-6-6-6-6-6-6-6-6-6-6-6-6-6-6--|
A chord diagramBB|-8--8--8--8--8--8--8--8--4-4-4-4-4-4-4-4-6-6-6-6-6-6-6-6-6-6-6-6-6-6-6-6--|
A chord diagramG+G|-10-10-10-10-10-10-10-10-5-5-5-5-5-5-5-5-8-8-8-8-8-8-8-8-7-7-7-7-7-7-7-7--|
A chord diagramD MajorD|-10-10-10-10-10-10-10-10-6-6-6-6-6-6-6-6-8-8-8-8-8-8-8-8-8-8-8-8-8-8-8-8--|
A chord diagramA augmentedA|-8--8--8--8--8--8--8--8--6-6-6-6-6-6-6-6-6-6-6-6-6-6-6-6-8-8-8-8-8-8-8-8--|
A chord diagramE MajorE|-------------------------4-4-4-4-4-4-4-4-----------------6-6-6-6-6-6-6-6--|


Bridge
Play this riff 1x
w/ distortion

e|-----8-----4----6-------------------|
A chord diagramBB|----------------------6-------------|
A chord diagramG+G|------------------------------------|
A chord diagramD MajorD|--10-----6----8-----8---8-----------|
A chord diagramA augmentedA|-8------6----6-----8-----8----------|
A chord diagramE MajorE|-------4----------6-------6---------|

e|------8-----4----6-6-6-6-6-6-6-6-6---------------------------|
A chord diagramBB|-------------------6-6-6-6-6-6-6-6---------------------------|
A chord diagramG+G|----10-------------7-7-7-7-7-7-7-7---------------------------|
A chord diagramD MajorD|--10------6----8---8-8-8-8-8-8-8-8---------------------------|
A chord diagramA augmentedA|-8-------6----6----8-8-8-8-8-8-8-8---------------------------|
A chord diagramE MajorE|--------4----------6-6-6-6-6-6-6-6---------------------------|


Chorus
Play this riff 5x
w/ distortion

e|-8--8--8--8--8--8--8--8--4-4-4-4-4-4-4-4-6-6-6-6-6-6-6-6-6-6-6-6-6-6-6-6--|
A chord diagramBB|-8--8--8--8--8--8--8--8--4-4-4-4-4-4-4-4-6-6-6-6-6-6-6-6-6-6-6-6-6-6-6-6--|
A chord diagramG+G|-10-10-10-10-10-10-10-10-5-5-5-5-5-5-5-5-8-8-8-8-8-8-8-8-7-7-7-7-7-7-7-7--|
A chord diagramD MajorD|-10-10-10-10-10-10-10-10-6-6-6-6-6-6-6-6-8-8-8-8-8-8-8-8-8-8-8-8-8-8-8-8--|
A chord diagramA augmentedA|-8--8--8--8--8--8--8--8--6-6-6-6-6-6-6-6-6-6-6-6-6-6-6-6-8-8-8-8-8-8-8-8--|
A chord diagramE MajorE|-------------------------4-4-4-4-4-4-4-4-----------------6-6-6-6-6-6-6-6--|


Outro
Play this riff 1x (16th notes)
w/ distortion

e|-6-6-6-6-6-6-6-6-6-6-6-6-6-6-6-6-----|
A chord diagramBB|-6-6-6-6-6-6-6-6-6-6-6-6-6-6-6-6-----|
A chord diagramG+G|-7-7-7-7-7-7-7-7-7-7-7-7-7-7-7-7-----|
A chord diagramD MajorD|-8-8-8-8-8-8-8-8-8-8-8-8-8-8-8-8-----|
A chord diagramA augmentedA|-8-8-8-8-8-8-8-8-8-8-8-8-8-8-8-8-----|
A chord diagramE MajorE|-6-6-6-6-6-6-6-6-6-6-6-6-6-6-6-6-----|

End on this chord, let ring, w/ feedback

e|--1--|
A chord diagramBB|--1--|
A chord diagramG+G|--2--|
A chord diagramD MajorD|--3--|
A chord diagramA augmentedA|--3--|
A chord diagramE MajorE|--1--|

Hope this works for you! It sounds OK to me.
Visit the Offspring at http://www.offspring.com
-Mark Griffith
"Fear is your only god"
March 6, 1997
ALBUM: Ixnay On The Umbray
SONG:Gone Away
GROUP:The Offspring
TRANSCRIBED BY:  Ryan Murphy


This song didn't take very long to figure out.  This is basically how it goes throughout the entire song.

E-----------------------------------------------------------------------------------------------------------------------------
B-----------------------------------------------------------------------------------------------------------------------------
G--10---10----10---10---10---10----10----10---10----13---13---13---13---13---13---13---13---13-----
D--10---10----10---10---10---10----10----10---10----13---13---13---13---13---13---13---13---13-----
A----8-----8-----8-----8-----8-----8-----8-----8-----8-----11---11---11---11---11---11---11---11---11-----
E-----------------------------------------------------------------------------------------------------------------------------

E------------------------------------------------------------------------------------------------------
B------------------------------------------------------------------------------------------------------
G------------------------------------------------------------------------------------------------------
D--13---13---13---13---13---13---13---13---13-----8---8---8---8---8---8---8---8---8
A--13---13---13---13---13---13---13---13---13-----8---8---8---8---8---8---8---8---8
E--11---11---11---11---11---11---11---11---11-----6---6---6---6---6---6---6---6---6


Transcibed by Bobby McIvor
This is the tab for "Gone Away" it sounds pretty good no timing so you
might want to add that in but this is the whole song. H means hammer on
and S means slide this also most of the time the full barre chord is not
strummed just the power chord part but it is some times.
           |-4-|    |---|    |-6-|
|----|     |-4-|    |---|    |-6-| Chorus and intro
|-10-|     |-5-|    |-8-|    |-7-|
|-10-| x8  |-6-| x8 |-8-| x8 |-8-| x8 lightly strum each chord and let
|-8--|     |-6-|    |-6-|    |-8-|    ring during the verse
|----|     |-4-|    |---|    |-6-|

  after intro
|---------------------------------------------------------------|
|---------------------------------------------------------------|
|-----------10-------------8------------8--10---3-3----3-H-5----|
|-8-H-10--------5-H-6---------3-H-5---------------------------3-|
|---------8-------------6------------6--------------------------|
|---------------------------------------------------------------|

"I reach to the sky" part
|------8-------6-----6-----------------|
|----6-------4-----4-----4-4-S-9-8-4-6-|
|-5--------3-----3-----3---------------|
|--------------------------------------|
|--------------------------------------|
|--------------------------------------|


E-Mail me at
WarmFreez@aol.com
   or
CoNvErTt@aol.com
Ryan Bick Karride@primenet.com			   "Gone Away"
			  by: Offspring
This is a good song but I could not find it tabbed out so I
took the liberty on myself.


           |-4-|    |---|    |-6-||----|     |-4-|    |---|    |-6-| Chorus and intro|-10-|     |-5-|    |-8-|    |-7-||-10-| x8  |-6-| x8 |-8-| x8 |-8-| x8 lightly strum each chord and let |-8--|     |-6-|    |-6-|    |-8-|    ring during the verse|----|     |-4-|    |---|    |-6-|  after intro|---------------------------------------------------------------||---------------------------------------------------------------||-----------10-------------8------------8--10---3-3----3-H-5----||-8-H-10--------5-H-6---------3-H-5---------------------------3-||---------8-------------6------------6--------------------------||---------------------------------------------------------------|"I reach to the sky" part|------8-------6-----6-----------------||----6-------4-----4-----4-4-S-9-8-4-6-||-5--------3-----3-----3---------------||--------------------------------------||--------------------------------------||--------------------------------------|


#



Hey there, well I've seen a lot of TAB for this song, most of it sounding
like the song, but almost all of it missing that "high" part. Also, no-one
seems to understand that it's tuned a half-step up (A chord diagramFF A chord diagramC majorC A chord diagramAbAb A chord diagramEb MajorEb A chord diagramBb majorBb A chord diagramFF). Oh ya,
and the part where they sing ""I reach to the sky..." I haven't seen any
correct tab for that, regardless of tuning, so that's in here as well.
Anyways, enjoy!
-Mike Eheler (kcobain13@hotmail.com)


         Title : Gone Away
        Artist : Offspring
         Album : Ixnay On The Hombre


🏷Legend
------
 h  = hammer-on
p  = pull-off
b  = bend
r  = bend release
/  = slide up/down
<5> = natural harmonic
[5] = artifical harmonic
~  = vibrato
tr = trill

Chord Diagrams (low to high)
----- --------
         A chord diagramFF  A chord diagramBb majorBb A chord diagramEb MajorEb A chord diagramAbAb A chord diagramC majorC  A chord diagramFF
A chord diagramE MajorE        X  7  9  9  9  X
A chord diagramG+G        3  5  5  4  X  X
A chord diagramD MajorD        X  5  7  7  7  X
A chord diagramA augmentedA        5  7  7  6  X  X
E5type1  0  2  2  X  X  X
Eopen    0  2  2  1  0  0
Gopen    3  2  0  0  0  3
Dopen    X  X  0  2  3  2
Aopen    X  0  2  2  2  0
A5type1  X  0  2  2  X  X
E5type2  X  X  9  9  12 12
G(triad) X  X  12 12 12 X
D5type1  X  X  7  7  X  10
A5type2  X  X  7  9  10 X
E5type3  X  X  9  9  X  7
A chord diagramGadd9Gadd9    X  X  9  7  10 X
D5type2  X  X  7  7  X  5
A5type3  X  7  7  X  5  X

    E5type2                 G(triad)                D5type1
A chord diagramFF |-12-12-12-12-12-12-12/-|-----------------------|-10-10-10-10-10-10-10--|
A chord diagramC majorC |-12-12-12-12-12-12-12/-|-12-12-12-12-12-12-12\-|-10-10-10-10-10-10-10--|
A chord diagramAbAb|--9--9--9--9--9--9--9/-|-12-12-12-12-12-12-12\-|--7--7--7--7--7--7--7--|
A chord diagramEb MajorEb|--9--9--9--9--9--9--9/-|-12-12-12-12-12-12-12\-|--7--7--7--7--7--7--7--|
A chord diagramBb majorBb|-----------------------|-----------------------|-----------------------|
A chord diagramFF |-----------------------|-----------------------|-----------------------|
    Rhy. Fig. 1 - Gtr. 1

    A5type2
A chord diagramFF |-------------------------|
A chord diagramC majorC |-10-10-10-10-10-10-10-10-|
A chord diagramAbAb|--9--9--9--9--9--9--9--9-|
A chord diagramEb MajorEb|--7--7--7--7--7--7--7--7-|
A chord diagramBb majorBb|-------------------------|
A chord diagramFF |-------------------------|

    A chord diagramE MajorE                 A chord diagramG+G                 A chord diagramD MajorD                 A chord diagramA augmentedA
A chord diagramFF |-----------------|-----------------|-----------------|-----------------|
A chord diagramC majorC |-9-9-9-9-9-9-9-9-|-----------------|-7-7-7-7-7-7-7-7-|-----------------|
A chord diagramAbAb|-9-9-9-9-9-9-9-9-|-4-4-4-4-4-4-4-4-|-7-7-7-7-7-7-7-7-|-6-6-6-6-6-6-6-6-|
A chord diagramEb MajorEb|-9-9-9-9-9-9-9-9-|-5-5-5-5-5-5-5-5-|-7-7-7-7-7-7-7-7-|-7-7-7-7-7-7-7-7-|
A chord diagramBb majorBb|-7-7-7-7-7-7-7-7-|-5-5-5-5-5-5-5-5-|-5-5-5-5-5-5-5-5-|-7-7-7-7-7-7-7-7-|
A chord diagramFF |-----------------|-3-3-3-3-3-3-3-3-|-----------------|-5-5-5-5-5-5-5-5-|
    Rhy. Fig. 1A - Gtr. 2

A chord diagramFF |-------------|--------------|---------------|------------|-------------|
A chord diagramC majorC |-------------|--------------|---------------|------------|-------------|
A chord diagramAbAb|-2h4--/9-----|------/7------|------/7---9\6-|------------|-------------|
A chord diagramEb MajorEb|-----2-------|-4h5-0--------|-2h4-0---------|-7---7---9\-|-2-----------|
A chord diagramBb majorBb|-------------|--------------|---------------|------------|-------------|
A chord diagramFF |-------------|--------------|---------------|------------|-------------|
    Riff 1 - Gtr. 1 - w/ Chorus pedal

    E5type1
A chord diagramFF |----------|------------|-------------|------------|
A chord diagramC majorC |----------|------------|-------------|------------|
A chord diagramAbAb|----------|------------|-------------|------------|
A chord diagramEb MajorEb|-2--------|-(2)--------|-(2)---------|-(2)--------|
A chord diagramBb majorBb|-2--------|-(2)--------|-(2)---------|-(2)--------|
A chord diagramFF |-0--------|-(0)--------|-(0)---------|-(0)--------|
    Gtr. 2

    E5type3       A chord diagramGadd9Gadd9            D5type2           A5type3
A chord diagramFF |-------7-----|-(7)------------|-----------5-----|----------------------|
A chord diagramC majorC |-------------|---------10-----|-(10)------------|-5-----7b8--7h8p7-----|
A chord diagramAbAb|-----9-------|-------7--------|--------7--------|------------------7/9-|
A chord diagramEb MajorEb|---9---------|-----9----------|------7----------|-----7----------------|
A chord diagramBb majorBb|-------------|----------------|-----------------|---7------------------|
A chord diagramFF |-------------|----------------|-----------------|----------------------|
    Rhy. Fig. 2 - Gtr. 1

    E5type3         A chord diagramGadd9Gadd9           D5type2           A5type1
A chord diagramFF |-------7-----|-(7)------------|-----------5----0-|-----------------|
A chord diagramC majorC |-------------|---------10-----|-(10)-----------0-|-----------------|
A chord diagramAbAb|-9---9-------|-------7--------|--------7---------|-2-2-2-2-2-2-2-2-|
A chord diagramEb MajorEb|---9---------|-----9----------|------7-----------|-2-2-2-2-2-2-2-2-|
A chord diagramBb majorBb|-------------|----------------|------------------|-0-0-0-0-0-0-0-0-|
A chord diagramFF |-------------|----------------|------------------|-----------------|
Lyrics:
-- w/ last bar of Riff 1
Maybe ..
I ..
Blown ..
I ..
It's ..
-- w/ Rhy. Fig. 1A, 2 times
And ..
like ..
And ..
like ..
now ..
Interlude -- Rhy. Figs. 1 & 1A, 2 times
-- w/ E5type1, 4 bars
Leaving ..
to ..
cant ..
whats ..
-- w/ Rhy. Fig. 2
I ..
and ..
and ..
-- w/ Rhy. Fig. 1A, 4 times
And ..
like..
And ..
now ..
now ..
-- w/ Rhy. Fig. 2
I ..
and ..
and ..
-- w/ Rhy. Fig. 1A, 5 times
And ..
like ..
And ..
like ..
now ..

Then end with this:
    Atype2                    A chord diagramE5E5
A chord diagramFF |-------------------------|-----------------|
A chord diagramC majorC |-10-10-10-10-10-10-10-10-|-----------------|
A chord diagramAbAb|--9--9--9--9--9--9--9--9-|-----------------|
A chord diagramEb MajorEb|--7--7--7--7--7--7--7--7-|-2---------------|
A chord diagramBb majorBb|-------------------------|-2---------------|
A chord diagramFF |-------------------------|-0---------------|

Almost there ...

Sign in to get your own page with links to favourite songs and more. You are just one click away...

Login with Facebook Login with Google