Log in

One click and you are in

Login with Facebook Login with Google

Why sign up and log in

Guitar Tabs Explorer
The Offspring tabs for Elders

Guitar tabs

Album: The Offspring
As tabbed by Joe Muggah


Riff
e----------------------------------------------------------
B----------------------------------------------------------
G--10--10m-10m-10m-10m-10m-10m--6-----6--8-----8-----------
D--10--10m-10m-10m-10m-10m-10m--6--6--6--8--8--8-----------
A---8---8m--8m--8m--8m--8m--8m--4--6--4--6--8--6-----------
E----------------------------------4--------6--------------
Verse
e----------------------------------------------------------
B----------------------------------------------------------
G--10--10-10-10-10-10-10--6-----6--8-----8-----------------
D--10--10-10-10-10-10-10--6--6--6--8--8--8-----------------
A---8---8--8--8--8--8--8--4--6--4--6--8--6-----------------
E----------------------------4--------6--------------------


Chorus
e----------------------------------------------------------
B----------------------------------------------------------
G---------------------------6--------------------------6---
D--3m-3m-3m-3m-3m-3m-3m-3m--6-5--6m-6m-6m-6m-6m-6m-6m--6-6-
A--3m-3m-3m-3m-3m-3m-3m-3m--4-5--6m-6m-6m-6m-6m-6m-6m--4-6-
E--1m-1m-1m-1m-1m-1m-1m-1m----3--4m-4m-4m-4m-4m-4m-4m----4-

(continued)
e----------------------------------------------------------
B----------------------------------------------------------
G---------------------------6----6-6-6-6--8-8-8-8----------
D--8m-8m-8m-8m-8m-8m-8m-8m--6-8--6-6-6-6--8-8-8-8--8-------
A--8m-8m-8m-8m-8m-8m-8m-8m--4-8--4-4-4-4--6-6-6-6--8-------
E--6m-6m-6m-6m-6m-6m-6m-6m----6--------------------6-------

Solo
e-------------------------15-------------------------------
B--13------------------------14--11--11--13h14p13----------
G-----13---------------------------------------------------
D--------15--15--13-15v------------------------------------
A----------------------------------------------------------
E----------------------------------------------------------

(continued)
e-------------------13^--13^--13^--13^--13^--13^-----------
B--13---------------14^--14^--14^--14^--14^--14^-----------
G-----13---------------------------------------------------
D--------15--13-15-----------------------------------------
A----------------------------------------------------------
E----------------------------------------------------------

(continued)
e--15-13--------13-----15-13--------13------13---13^--13^--
B--------14--14----14--------14--14----14---13---14^--14^--
G----------------------------------------------------------
D----------------------------------------------------------
A----------------------------------------------------------
E----------------------------------------------------------

(continued)
e--13^--13^--13^--13^--------------------------------------
B--14^--14^--14^--14^--------------------------------------
G----------------------------------------------------------
D----------------------------------------------------------
A----------------------------------------------------------
E----------------------------------------------------------


Bridge
e----------------------------------------------------------
B----------------------------------------------------------
G----------------------6--5--6---6--5--6---6-6-6-6-8-8-8-8-
D--8--6--8---8--6--8---6--5--6---6--5--6---6-6-6-6-8-8-8-8-
A--8--6--8---8--6--8---4--3--4---4--3--4---4-4-4-4-6-6-6-6-
E--6--4--6---6--4--6---------------------------------------


Outro
e----------------------------------------------------------
B----------------------------------------------------------
G--6-----6--6-----6--8-------------------------------------
D--6--6--6--6--6--6--8-------------------------------------
A--4--6--4--4--6--4--6-------------------------------------
E-----4--------4-------------------------------------------


Riff

Verse

Chorus

Riff

Verse

Chorus

Chorus, Solo

Bridge

Chorus

Riff

Verse

Outro

Almost there ...

Sign in to get your own page with links to favourite songs and more. You are just one click away...

Login with Facebook Login with Google