Log in

One click and you are in

Login with Facebook Login with Google

Why sign up and log in

Guitar Tabs Explorer
The Offspring tabs for Dammit i changed again

Guitar tabs

Album: Conspiracy of One
As tabbed by Joe Muggah

\\ = pick slide up
m  = palm mute
Intro
e--------------------------------------------------------
B--------------------------------------------------------
G--------------------------------------------------------
D-3-------\\---------------------------------------------
A-3-------\\---------------------------------------------
E-1-------\\---------------------------------------------


Chorus A chord diagramA augmentedA (Guitar 1, each 6 times)
e--------------------------------------------------------
B--------------------------------------------------------
G-10---6-------8---10---6-------8------------------------
D-10---6---6---8---10---6---6---8------------------------
A--8---4---6---6----8---4---6---6------------------------
E----------4----------------4----------------------------


Chorus A chord diagramBB (Guitar 2)
e--------------------------------------------------------
B--------------------------------------------------------
G-10--13-12-13------13-12-13-----13-12-13-15-13-12----10-
D--x---x--x--x--11---x--x--x--13--x--x--x--x--x--x-13--x-
A--8--11-10-11---x--11-10-11---x-11-11-11-13-11-10--x--8-
E----------------9------------11-------------------11----

Bass Verse (each 6 times)         Fill
e--------------------------------|-----------------------
B--------------------------------|-----------------------
G--------------------------------|----------8------------
D--------------------------------|-6m-------8------------
A-----4-------6-------4-------6--|-6m-(x6)--6------------
E-1-------4-------1-------4------|-4m--------------------

Verse (each 6 times)
e--------------------------------------------------------
B--------------------------------------------------------
G-----6-------8-------6-------8--------------------------
D-3---6---6---8---3---6---6---8--------------------------
A-3---4---6---6---3---4---6---6--------------------------
E-1-------4-------1-------4------------------------------


Bridge A chord diagramA augmentedA (Guitar 1)   each 8 times and palm muted
e-------------------|------------------------------------
B-------------------|------------------------------------
G-------------------|-----6------8-----------------------
D-3-----3-----3-----|-3---6---6--8-----------------------
A-3-----------------|-3---4---6--6-----------------------
E-1-----------------|-1-------4--------------------------


Bridge A chord diagramBB (Guitar 2)
e--------------------------------------------------------
B--------------------------------------------------------
G-5---5---5-----6---6---6-----5---5---5-----3---3---3----
D---3---3----3----6---6----6----6---6----6----1---1----1-
A--------------------------------------------------------
E--------------------------------------------------------


Outro
e--------------------------------------------------------
B--------------------------------------------------------
G-8m-------8\--------------------------------------------
D-8m-(x9)--8\-3------------------------------------------
A-6m-------6\-3------------------------------------------
E-------------1------------------------------------------


Intro

Chorus A, A chord diagramBB
Bass Verse
Fill

Chorus A chord diagramA augmentedA

Chorus A, A chord diagramBB
Bass Verse
Bass Verse, Verse
Fill

Chorus A chord diagramA augmentedA

Chorus A, A chord diagramBB

Bridge A, A chord diagramBB

Chorus A chord diagramA augmentedA

Chorus A, A chord diagramBB

Outro

Almost there ...

Sign in to get your own page with links to favourite songs and more. You are just one click away...

Login with Facebook Login with Google