Log in

One click and you are in

Login with Facebook Login with Google

Why sign up and log in

Guitar Tabs Explorer
The Offspring tabs for Da hui

Guitar tabs

Album: Splinter (2003)
Tabbed by: Philippe Rosa (philippe_rosa@bol.com.br)
Friday, October 31, 2003 (Happy Halloween!) - Rio de
Janeiro, BRAZIL
This song is played really fast!
In the solo part I wrote an idea of how many notes are
actually played.

> = Slide
* = palm mute
(let ring) -> for about 2 seconds


E-|-----------------------------|
B-|-----------------------------|
G-|-------------9-9--9----------|
D-|-6-6-4-6-6-4-9-9--9-9-9-11-9-| (X3)
A-|-6-6-4-6-6-4-7-7--7-9-9-11-9-|
E-|-4-4-2-4-4-2--------7-7-9--7-|

E-|---------------|
B-|---------------|
G-|---------------|
D-|-6-6-4-6-6-4-6-|
A-|-6-6-4-6-6-4-6-|
E-|-4-4-2-4-4-2-4-|

E-|-----------------------------|
B-|-----------------------------|
G-|-------------9-9--9----------|
D-|-6-6-4-6-6-4-9-9--9-9-9-11-9-| (X3)
A-|-6-6-4-6-6-4-7-7--7-9-9-11-9-|
E-|-4-4-2-4-4-2--------7-7-9--7-|

E-|---------------|
B-|---------------|
G-|---------------|
D-|-6-6-4-6-6-4-6-|
A-|-6-6-4-6-6-4-6-|
E-|-4-4-2-4-4-2-4-|

E-|----------------------------------------|
B-|----------------------------------------|
G-|-9-(let ring)---------------------------|
D-|-9-(let ring)-4-(let ring)-6-(let ring)-| (X3)
A-|-7-(let ring)-4-(let ring)-6-(let ring)-|
E-|--------------2-(let ring)-4-(let ring)-|

E-|-----------------------------|
B-|-----------------------------|
G-|-9-(let ring)----------------|
D-|-9-(let ring)-4-(let ring)-6-|
A-|-7-(let ring)-4-(let ring)-6-|
E-|--------------2-(let ring)-4-|

E-|-----------------------------|
B-|-----------------------------|
G-|-------------9-9--9----------|
D-|-6-6-4-6-6-4-9-9--9-9-9-11-9-| (X3)
A-|-6-6-4-6-6-4-7-7--7-9-9-11-9-|
E-|-4-4-2-4-4-2--------7-7-9--7-|

E-|---------------|
B-|---------------|
G-|---------------|
D-|-6-6-4-6-6-4-6-|
A-|-6-6-4-6-6-4-6-|
E-|-4-4-2-4-4-2-4-|

E-|----------------------------------------|
B-|----------------------------------------|
G-|-9-(let ring)---------------------------|
D-|-9-(let ring)-4-(let ring)-6-(let ring)-| (X3)
A-|-7-(let ring)-4-(let ring)-6-(let ring)-|
E-|--------------2-(let ring)-4-(let ring)-|

E-|-----------------------------|
B-|-----------------------------|
G-|-9-(let ring)----------------|
D-|-9-(let ring)-4-(let ring)-6-|
A-|-7-(let ring)-4-(let ring)-6-|
E-|--------------2-(let ring)-4-|

This part is played by 2 guitars at the same time:

Guitar 1:

E-|-----------------------------|
B-|-----------------------------|
G-|-------------9-9--9----------|
D-|-6-6-4-6-6-4-9-9--9-9-9-11-9-| (X3)
A-|-6-6-4-6-6-4-7-7--7-9-9-11-9-|
E-|-4-4-2-4-4-2--------7-7-9--7-|

Guitar 2 ("Solo" - Fast Picking):

E-|------------------------------------------------------
-------------------------------|
B-|-------------------------------------------8-8-8------
-------------------------------|
G-|-7-7-7-7-7-7-7-8-8-8-5-5-7-5-7-7-7-7-7-7-7-------5-5-
7-5-7-7-7-7-7-7-7-8-8-8-5-5-7-5-|
D-|------------------------------------------------------
-------------------------------|
A-|------------------------------------------------------
-------------------------------|
E-|------------------------------------------------------
-------------------------------|

The end of the "solo" is played by only one guitar:

E-|-------------------------|
B-|-------------------------|
G-|-------------------------|
D-|-------------------------|
A-|-----3-4-3-4>6-4>3>4>3---|
E-|-4-4-------------------4-|


E-|----------------------------------------|
B-|----------------------------------------|
G-|-9-(let ring)---------------------------|
D-|-9-(let ring)-4-(let ring)-6-(let ring)-| (X3)
A-|-7-(let ring)-4-(let ring)-6-(let ring)-|
E-|--------------2-(let ring)-4-(let ring)-|

E-|-------------------------------------|
B-|-------------------------------------|
G-|-9-(let ring)------------------------|
D-|-9-(let ring)-4-(let ring)-6-6-6-6-6-|
A-|-7-(let ring)-4-(let ring)-6-6-6-6-6-|
E-|--------------2-(let ring)-4-4-4-4-4-|

(Don't fuck with Da Hui, don't fuck with Da Hui...)

The following chors are to be played when Dexter says
("cuz Da Hui will fuck with you"):

E-|----------------------|
B-|----------------------|
G-|----------------------|
D-|-6-6--6-6-6--6-6--6-6-|
A-|-6-6--6-6-6--6-6--6-6-|
E-|-4-4--4-4-4--4-4--4-4-|

The very last part of the song goes like:

E-|------------------------------------------------------
|
B-|------------------------------------------------------
|
G-|-------------9-9--9-----------------------------------
|
D-|-6-6-4-6-6-4-9-9--9-9-9-11-9--6*-6*-6*-6*-6*-4*-7*-6*-
|
A-|-6-6-4-6-6-4-7-7--7-9-9-11-9--6*-6*-6*-6*-6*-4*-7*-6*-
|
E-|-4-4-2-4-4-2--------7-7-9--7--4*-4*-4*-4*-4*-2*-5*-4*-
|

(The End)


__________________________________________________________________________

Other versions of Da Hui

Da huiChords

Almost there ...

Sign in to get your own page with links to favourite songs and more. You are just one click away...

Login with Facebook Login with Google