Log in

One click and you are in

Login with Facebook Login with Google

Why sign up and log in

Guitar Tabs Explorer
The Offspring tabs for Cool to hate

Guitar tabs

Tab By: Adam Atkinson (jesus_smokes_dope@hotmail.com)
album: Ixnay on the Hombre
Track: Cool to Hate
x - scratch
: - let ring
pm - palm mute

verse 1

|------------------------|
|------------------------|
|-10-10-----10-8-8----8--|
|-10-10--10-10-8-8--8-8--|
|--8--8--10--8-6-6--8-6--|
|---------8---------6----|


verse 2

|------------------------------------------------------------------|
|------------------------------------------------------------------|
|-10:-----10-8:----8-6:----6-8:----8-10:-----10-8:----8------------|
|-10:--10-10-8:--8-8-6:--6-6-8:--8-8-10:--10-10-8:--8-8-8pm--10pm--|
|--8:--10--8-6:--8-6-4:--6-4-6:--8-6--8:--10--8-6:--8-6-8pm--10pm--|
|-------8--------6-------4-------6---------8--------6---6pm---8pm--|


chorus

|---------------------------------------------------------------|
|---------------------------------------------------------------|
|-10-10-10----------8-8-8----------6-6-6----------8-8-8---------|
|-10-10-10-6-6-6-6--8-8-8-8-8-8-8--6-6-6-6-6-6-6--8-8-8-8-8-8-8-|
|--8--8--8-6-6-6-6--6-6-6-8-8-8-8--4-4-4-6-6-6-6--6-6-6-8-8-8-8-|
|----------4-4-4-4--------6-6-6-6--------4-4-4-4--------6-6-6-6-|

ending of chorus

|-------------------------------|
|-------------------------------|
|-6-6-6----------8-8-8-8--------|
|-6-6-6-6-6-6-6--8-8-8-8-8-8-8--|
|-4-4-4-6-6-6-6--6-6-6-6-8-8-8--|
|-------4-4-4-4----------6-6-6--|


bridge 1

|-------------------------------------| |--------------|
|-------------------------------------| |--------------|
|-10-10-x-x-10-10-x-x-8-8-x-x-8-8-x-x-| |--------------|
|-10-10-x-x-10-10-x-x-8-8-x-x-8-8-x-x-| |--8--8-x-x--8--8-x-x-6-6-x-x-6-6-x-x-| finishes |-8pm---10pm---|
|-------------------------------------| with> |-6pm----8pm---|


bridge 2
all palm muted

pm_____________________________________________________________________>
|---------------------------------------------------------------------|
|---------------------------------------------------------------------|
|-10-10-10-10---------8-8-8-8---------6-6-6-6---------8-8-8-8---------|
|-10-10-10-10-6-6-6-6-8-8-8-8-8-8-8-8-6-6-6-6-6-6-6-6-8-8-8-8-8-8-8-8-|
|--8--8--8--8-6-6-6-6-6-6-6-6-8-8-8-8-4-4-4-4-6-6-6-6-6-6-6-6-8-8-8-8-|
|-------------4-4-4-4---------6-6-6-6---------4-4-4-4---------6-6-6-6-|

finish the above piece with

|---------------------------------|
|---------------------------------|
|-6-6-6-6---------8-8-8-8---------|
|-6-6-6-6-6-6-6-6-8-8-8-8-8-8-8-8-|
|-4-4-4-4-6-6-6-6-6-6-6-6-8-8-8-8-|
|---------4-4-4-4---------6-6-6-6-|


bridge 3

|---------------------------|
|---------------------------|
|-10:--8-10:--10-8:--8-10:--|
|-10:--8-10:--10-8:--8-10:--|
|--8:--6--8:---8-6:--6--8:--|
|---------------------------|


ending note

|-----|
|-----|
|-10--|
|-10--|
|--8--|
|-----|
ⓘ Guitar tab for 'Cool To Hate' by The Offspring, a punk rock band formed in 1984 from Huntington Beach, California, USA. The Offspring is known for their gritty punk music.

Almost there ...

Sign in to get your own page with links to favourite songs and more. You are just one click away...

Login with Facebook Login with Google