Log in

One click and you are in

Login with Facebook Login with Google

Why sign up and log in

Guitar Tabs Explorer
The Offspring chords for Conspiracy of one

Guitar chords

Album: Conspiracy of One
As tabbed by Joe Muggah

m= palm mute
Riff                         Fill
e---------------------------|--------------------------
B--------------------*-*-*--|-*replace with------------
G-7-7--5-7-7--5-7-7--5-3-5--|-----5-7-7----------------
D-7-7--5-7-7--5-7-7--5-3-5--|-----5-7-7----------------
A-5-5--3-5-5--3-5-5--3-1-3--|-----3-5-5----------------
E---------------------------|--------------------------


Verse
e------------------------------------------------------
B------------------------------------------------------
G-7---9-10-7---------5--5m-5m-5m-------3-3-3-3--5------
D-7---9-10-7---3m-3m-5--5m-5m-5m-3m-3m-3-3-3-3--5------
A-5---7--8-5---3m-3m-3--3m-3m-3m-3m-3m-1-1-1-1--3------
E--------------1m-1m-------------1m-1m-----------------
("Red over white...")


Chorus                     end on
e------------------------|-----------------------------
B------------------------|-----------------------------
G-7-7-9-10-7--5-5-5---5--|-3--3-3-3-3-3-3--5-----------
D-7-7-9-10-7--5-5-5-5-5--|-3--3-3-3-3-3-3--5-----------
A-5-5-7--8-5--3-3-3-5-3--|-1--1-1-1-1-1-1--3-----------
E-------------------3----|-----------------------------
("Nobody wins...")


Bridge 1 (twice, then bridge 2)
e------------------------------------------------------
B------------------------------------------------------
G-7m------9m-7m-10--3m---------------------------------
D-7m-(x5)-9m-7m-10--3m-(x4)-3m-5m-3m-5-----------------
A-5m------7m-5m--8--1m------3m-5m-3m-5-----------------
E---------------------------1m-3m-1m-3-----------------

Bridge 2
e------------------------------------------------------
B------------------------------------------------------
G-7------5-7-10-10-3------------12-10----------12m-----
D-7-(x5)-5-7-10-10-3-(x4)-3-5-3-12-10--8m-(x8)-12m-(x8)
A-5------3-5--8--8-1------3-5-3-10--8--8m------10m-----
E-------------------------1-3-1--------6m--------------


Riff

Verse

Riff, Fill

Chorus

Riff

Verse

Riff

Verse

Riff, Fill

Chorus

Bridge 1

Bridge 2

Chorus

Riff

Other versions of Conspiracy Of One

Conspiracy of oneTabs

Almost there ...

Sign in to get your own page with links to favourite songs and more. You are just one click away...

Login with Facebook Login with Google