Log in

One click and you are in

Login with Facebook Login with Google

Why sign up and log in

Guitar Tabs Explorer
The Offspring chords for Come out swinging

Guitar chords

Album: Conspiracy of One
As tabbed by Joe Muggah


Riff                                Fill
e---------------------------------|--------------------
B---------------------------------|--------------------
G-9-7-9-7-9-11-12-12-12-----12-11-|-9-xxxx-9-xxxx-9-xx-
D-9-7-9-7-9-11-12-12-12-12--12-11-|-9-xxxx-9-xxxx-9-xx-
A-7-5-7-5-7--9-10-10-10-12--10--9-|-7-xxxx-7-xxxx-7-xx-
E-----------------------10--------|--------------------
Verse 1
e------------------------------------------------------
B------------------------------------------------------
G-9---7---9---9---7---9---9------7------9-----11-12-11-
D-------------------------x-(x6)-x-(x6)-x-(x5)-x--x--x-
A-7---5---7---7---5---7---7------5------7------9-10--9-
E------------------------------------------------------
("You brace and hold it...")


Verse 1 (continued)
e------------------------------------------------------
B------------------------------------------------------
G--------9-7--9------7------9------9-7-9---------------
D-12-12--x-x--x-(x6)-x-(x6)-x-(x5)-x-x-x-10-10--12-12--
A-12-12--7-5--7------5------7------7-5-7-10-10--12-12--
E-10-10-----------------------------------8--8--10-10--


Chorus
e------------------------------------------------------
B------------------------------------------------------
G-9-7-9----------------------------5-5--7-7------------
D-9-7-9-4-5-5-5-5-5-5--5-5--5-7-5--5-5--7-7------------
A-7-5-7-4-5-5-5-5-5-5--5-5--5-7-5--3-3--5-5------------
E-------2-3-3-3-3-3-3--3-3--3-5-3----------------------
("Don't turn away...")

Chorus (continued)
e------------------------------------------------------
B------------------------------------------------------
G-9-7-9------------------------------------------------
D-9-7-9-4-5-5-5-5-5-5--5-5--5-7-5--7-5-4-3-------------
A-7-5-7-4-5-5-5-5-5-5--5-5--5-7-5--7-5-4-3-------------
E-------2-3-3-3-3-3-3--3-3--3-5-3--5-3-2-1-------------
("Don't turn away...")


Verse 2
e------------------------------------------------------
B------------------------------------------------------
G-9---7---9---9---7---9-*/________\-------5-5--7-7-----
D------------------------2-5-7--2-5--7-7--5-5--7-7-----
A-7---5---7---7---5---7--2-5-7--2-5--7-7--3-3--5-5-----
E------------------------0-3-5--0-3--5-5---------------
* each played 8 times with off-on muting, like Fill 1
("Your pacing's wearing...")

Post-Chorus
e------------------------------------------------------
B------------------------------------------------------
G-5--5-5-5--5--4-4-4/7-7-7-7-7/9-----------------------
D-5--5-5-5--5--4-4-4/7-7-7-7-7/9-----------------------
A-3--3-3-3--3--2-2-2/5-5-5-5-5/7-----------------------
E------------------------------------------------------
("Pain inside can...")


Bridge 1
e------------------------------------------------------
B------------------------------------------------------
G-9------7------9------11-11-12-11---------------------
D-x-(x8)-x-(x8)-x-(x8)--x--x--x--x-12-12---------------
A-7------5------7-------9--9-10--9-12-12---------------
E----------------------------------10-10---------------


Bridge 2                                end on
e-------------------------------------|----------------
B-------------------------------------|----------------
G-9---------------------7-------------|-9xxxx-9xxxx-9xx
D-9-(x8)-10-(x8)-7-(x8)-7-(x8)-9-(x8)-|-9xxxx-9xxxx-9xx
A-7------10------7------5------9------|-7xxxx-9xxxx-9xx
E---------8------5-------------7------|----------------
("Midnight...no sleep...")


Outro
e------------------------------------------------------
B------------------------------------------------------
G-5--5-5-5--5-5-7--7-7------------------9--------------
D-5--5-5-5--5-5-7--7-7--7-5-7-5-7-5-4-2-9--------------
A-3--3-3-3--3-3-5--5-5--7-5-7-5-7-5-4-2-7--------------
E-----------------------5-3-5-3-5-3-2-0----------------
("Pain inside...")


Riff
Fill

Verse 1

Chorus

Riff

Verse 2

Chorus
Post-Chorus

Bridge 1

Bridge 2 (Guitar 1 palm muted, then Guitar 2, then both)

Chorus

A chord diagramA augmentedA really fast and awesome tune. A chord diagramA augmentedA wicked way to start
this cool album.

Almost there ...

Sign in to get your own page with links to favourite songs and more. You are just one click away...

Login with Facebook Login with Google