Log in

One click and you are in

Login with Facebook Login with Google

Why sign up and log in

Guitar Tabs Explorer
The Offspring tabs for Change the world

Guitar tabs

Tab by: Adam Atkinson (jesus_smokes_dope@hotmail.com)
Tittle: Change the world
Album: Ixnay on the Hombre

/  - slide
: - let ring
* - repeat about 8 times
h - hammer on
p - pull off
pm - palm mute

intro/bridge

|-----------------------------------4-4-4-4h5-4----------------|
|-----------------------------------5-5-5-5-5-5--4-4-4h5p4---4-|
|----------------------------------------------------------6---|
|-4-7-7-7-6-6-7-7-9-9-9-7-7-7-6-6------------------------------|
|---------------------------------7----------------------------|
|--------------------------------------------------------------|


verse 1

|--------------------|
|--------------------|
|-11*---11*---11*----|
|-11*---11*---11*----|
|--9*----9*----9*----|
|--------------------|

|----|
|----|
|----|
|-4--|
|-4--|
|-2--|

end of verse

|------------------------------------|
|------------------------------------|
|-11-11:---11-11-9-9:---9-9----------|
|-11-11:---11-11-9-9:---9-9-9-9---4--|
|--9--9:----9--9-7-7:---7-7-9-9---4--|
|---------------------------7-7---2--|

pre-chorus pre-chorus ends with

pm_______________|
|----------------| |--------------|
|----------------| |--------------|
|------9*--------| |-6-6-7-9:----|
|--7*-9*-9*-9*--| |-6-6-7-9:----|
|--7*-7*-9*-9*--| |-4-4-5-7:----|
|--5*----7*-7*--| |--------------|


chorus end chorus with

|------------------| |----|
|------------------| |----|
|-----9*--4*--11*--| |----|
|-4*--9*--4*--11*--| |-4--|
|-4*--7*--2*---9*--| |-4--|
|-2*---------------| |-2--|

after the chorus comes around a second time, play the above twice then play

|-----------------------------------------------------------------------|
|-----------------------------------------------------------------------|
|-----9*--4*--6-6-6-7:--11*------9:--11*------9:--11*-------9-9-11--11--|
|-4*--9*--4*--6-6-6-7:--11*--7:--9:--11*--7:--9:--11*--7-7--9-9-11--11--|
|-4*--7*--2*--4-4-4-5:---9*--7:--7:---9*--7:--7:---9*--7-7--7-7--9---9--|
|-2*-------------------------5:-----------5:-----------5-5--------------|

after the drums fill, play

outro

|----|
|----|
|----|
|-4:-|
|-4:-|
|-2:-|

Other versions of Change The World

Change the worldChords

Almost there ...

Sign in to get your own page with links to favourite songs and more. You are just one click away...

Login with Facebook Login with Google