Log in

One click and you are in

Login with Facebook Login with Google

Why sign up and log in

Guitar Tabs Explorer
The Offspring tabs for Cant get my head around you

Guitar tabs

"(Can't Get My) Head Around You"
by Offspring
from the upcomming Album "Splinter"

transcribed by Kai Bluemel
e-mail: k.bluemel@gmx.net

[INTRO]
E-------------------------------------------------------------------|
B-------------------------------------------------------------------|
G--9-9--9-9---9-9--9-9----------------------------------------------|
D--9-9--9-9---9-9--9-9----------------------------------------------|
A--7-7--7-7---7-7--7-7----------------------------------------------|
E-------------------------------------------------------------------|


[VERSE] 4x (Palm Muted)
E-------------------------------------------------------------------|
B-------------------------------------------------------------------|
G-----------------4-7-7-7-------------------------------------------|
D--2-2-2-4-5-5-5--4-7-7-7--5-7-7-7----------------------------------|
A--2-2-2-4-5-5-5--2-5-5-5--5-7-7-7----------------------------------|
E--0-0-0-2-3-3-3-----------3-5-5-5----------------------------------|


[CHORUS] 4x (Heavy Distortion)
E-------------------------------------------------------------------|
B-------------------------------------------------------------------|
G------------4-7-7--------------------------------------------------|
D--2-2-4-5-5-4-7-7-5-7-7--------------------------------------------|
A--2-2-4-5-5-2-5-5-5-7-7--------------------------------------------|
E--0-0-2-3-3-------3-5-5--------------------------------------------|


[VERSE 2]
E-------------------------------------------------------------------|
B-------------------------------------------------------------------|
G--5-5-5-5-5-5-5-5-5-5-5-5-5-5-5-5----------------------------------|
D--5-5-5-5-5-5-5-5-5-5-5-5-5-5-5-5--2-2--2-2--2-2--2-2--------------|
A--3-3-3-3-3-3-3-3-3-3-3-3-3-3-3-3--2-2--2-2--2-2--2-2--------------|
E-----------------------------------0-0--0-0--0-0--0-0--------------|
 (continued...)
E-------------------------------------------------------------------|
B-------------------------------------------------------------------|
G--5-5-5-5-5-5-5-5-5-5-5-5-5-5-5-5-7-7-7-7-7-7-7-7-4-4-4-4-4-4-4-4--|
D--5-5-5-5-5-5-5-5-5-5-5-5-5-5-5-5-7-7-7-7-7-7-7-7-4-4-4-4-4-4-4-4--|
A--3-3-3-3-3-3-3-3-3-3-3-3-3-3-3-3-5-5-5-5-5-5-5-5-2-2-2-2-2-2-2-2--|
E-------------------------------------------------------------------|


[SOLO] (use Whah-Pedal)
E-------------------------------------------------------------------|
B--------------------------15-15------------------------------------|
G--12-12-12-12-12-12-12-12-------14-14------------------------------|
D-------------------------------------------------------------------|
A-------------------------------------------------------------------|
E-------------------------------------------------------------------|


[BRIDGE]
E-------------------------------------------------------------------|
B-------------------------------------------------------------------|
G--9-9--9-9---9-9--9-9----------------------------------------------|
D--9-9--9-9---9-9--9-9----------------------------------------------|
A--7-7--7-7---7-7--7-7----------------------------------------------|
E-------------------------------------------------------------------|


  INTRO
  VERSE x4
 CHORUS x4

VERSE 2
 CHORUS x4
   SOLO x3
 BRIDGE

VERSE 2
  VERSE x4
 CHORUS x4
   SOLO x3
 BRIDGE

Other versions of Can't Get My Head Around You

Can't get my head around you (Ver. 2)Tabs

Almost there ...

Sign in to get your own page with links to favourite songs and more. You are just one click away...

Login with Facebook Login with Google