Log in

One click and you are in

Login with Facebook Login with Google

Why sign up and log in

Guitar Tabs Explorer
The Offspring tabs for Beheaded

Guitar tabs

Album: The Offspring


Riff 1
e--5-5-5--3-3-3--6-6-6--5--5-5--5-5-5--3-3-3--6-6-6--5--5-5-
B--3-3-3--3-3-3--3-3-3--3--3-3--3-3-3--3-3-3--3-3-3--3--3-3-
G-----------------------------------------------------------
D-----------------------------------------------------------
A-----------------------------------------------------------
E-----------------------------------------------------------
Verse
e-----------------------------------------------------------
B-----------------------------------------------------------
G--7--5--8-8-8--7--7-7---7--5--8-8-8--7--7-7----------------
D--7--5--8-8-8--7--7-7---7--5--8-8-8--7--7-7--5-5-5-5-5-5-5-
A--5--3--6-6-6--5--5-5---5--3--6-6-6--5--5-5--5-5-5-5-5-5-5-
E---------------------------------------------3-3-3-3-3-3-3-

(continued)
e-----------------------------------------------------------
B-----------------------------------------------------------
G-----------------------------------------------------------
D--8-8-8-8-8-8-8--7-7-7-7-7-7-7--7-7-7-7-7-7-7--------------
A--8-8-8-8-8-8-8--7-7-7-7-7-7-7--7-7-7-7-7-7-7--------------
E--6-6-6-6-6-6-6--5-5-5-5-5-5-5--5-5-5-5-5-5-5--------------


Chorus
e-----------------------------------------------------------
B-----------------------------------------------------------
G-12-12-12-12-12-12-12-12--10-10-10-10-10-10-10-10--7--8\7--
D-12-12-12-12-12-12-12-12--10-10-10-10-10-10-10-10--7--8\7--
A-10-10-10-10-10-10-10-10---8--8--8--8--8--8--8--8--5--6\5--
E-----------------------------------------------------------

(continued)
e-----------------------------------------------------------
B-----------------------------------------------------------
G-7--7--12-12-12-12-12-12-12-12--10-10-10-10-10-10-10-10--7-
D-7--7--12-12-12-12-12-12-12-12--10-10-10-10-10-10-10-10--7-
A-5--5--10-10-10-10-10-10-10-10---8--8--8--8--8--8--8--8--5-
E-----------------------------------------------------------

Bridge
e-----------------------------------------------------------
B-----------------------------------------------------------
G------7---------7-----------7-----------7------------------
D------7---------7-----------7-----------7------------------
A--5m----5m--8m----8m--7m-7m---7m--6m-6m---6m---------------
E-----------------------------------------------------------


Riff 2
e-----------------------------------------------------------
B-----------------------------------------------------------
G--7----10---8---7----10---8---7----10---8----7---10---8----
D--7----10---8---7----10---8---7----10---8----7---10---8----
A--5-----8---6---5-----8---6---5-----8---6----5----8---6----
E-----------------------------------------------------------


Riff 1

Verse

Chorus

Riff 1

Verse

Chorus

Bridge

Riff 2

Riff 1

Verse

Chorus

Verse

Almost there ...

Sign in to get your own page with links to favourite songs and more. You are just one click away...

Login with Facebook Login with Google