Log in

One click and you are in

Login with Facebook Login with Google

Why sign up and log in

Guitar Tabs Explorer
The Offspring tabs for Bad habit

Guitar tabs

"Bad Habit"
by Offspring
off the album, Smash

transcribed by Rob Schenk
e-mail: mcb1@violet.berkeley.edu
intro

---------------------------------
---------------------------------
-2----x-x-x-2-----x-x-x-2--------
-2----x-x-x-2-----x-x-x-2--------
-0----x-x-x-0-----x-x-x-0--------
---------------------------------


verse (play twice)

-----------------------------------------------------------------
-----------------------------------------------------------------
-2--x-5---x-7-5-7-5---2--x-5----x-2-2-2--------------------------
-2--x-5---x-7-5-7-5---2--x-5----x-2-2-2-let ring-----------------
-0--x-3---x-5-3-5-3---0--x-3----x-0-0-0----------then pick slide-
-----------------------------------------------------------------

rhythm 1

-------------------------------------------
-------------------------------------------
-------------------------------------------
-5---------5---------5---------5-----------
-5---------5---------5---------5-----------
-3-3-3-3-3-3-3-3-3-3-3-3-3-3-3-3-3-3-3-3---

------------------------------------------
------------------------------------------
-9---------9---------9---------9----------
-9---------9---------9---------9----------
-7-7-7-7-7-7-7-7-7-7-7-7-7-7-7-7-7-7-7-7--
------------------------------------------

chorus (play 4X)

---------------------------------
---------------------------------
-2---x-9-10----5----7-7---9-9----
-2---x-9-10----5----7-7---9-9----
-0---x-7--8----3----5-5---7-7----
---------------------------------

rhythm 2                                         end 1

------------------------------------------------------
------------------------------------------------------
-2-----------------x-10-10----7-----------------x-9-9-
-2-----------------x-10-10----7-----------------x-9-9-
-0-0-0-0-0-0-0-0-0-x--8--8----5-5-5-5-5-5-5-5-5-x-7-7-
------------------------------------------------------

end 2

-------------------------------------------
-------------------------------------------
-x-9-9-9-9-9-9-9-9------2------------------
-x-9-9-9-9-9-9-9-9------2--then pick slide-
-x-7-7-7-7-7-7-7-7------0------------------
-------------------------------------------

repeat verse

repeat rhythm 1

repeat chorus

repeat rhythm 2

rhythm 3

--------------------------------------------
--------------------------------------------
------------------------------------7--5--2-
------------------------------------7--5--2-
-19-19-19-19-18-17-17-17-17--14-13--5--3--0-
-17-17-17-17-16-15-15-15-15--12-11----------

repeat rhythm 1

repeat chorus

repeat rhythm 2

Almost there ...

Sign in to get your own page with links to favourite songs and more. You are just one click away...

Login with Facebook Login with Google