Log in

One click and you are in

Login with Facebook Login with Google

Why sign up and log in

Guitar Tabs Explorer
The Offspring tabs for A thousand days

Guitar tabs

Album: The Offspring
As tabbed by Joe Muggah


Intro
e----------------------------------------------------------
B----------------------------------------------------------
G----------------------------------------------------------
D--------------4-4--0--3-3--0---------------4-4--0--3-3--0-
A-0-0-0-2-2-2------------------0-0-0-2-2-2-----------------
E----------------------------------------------------------
Verse
e----------------------------------------------------------
B----------------------------------------------------------
G---------------11--10--7----------------11--10--7---------
D--7-7-7-9-9-9--11--10--7---7-7-7-9-9-9--11--10--7---------
A--7-7-7-9-9-9---9---8--5---7-7-7-9-9-9---9---8--5---------
E--5-5-5-7-7-7--------------5-5-5-7-7-7--------------------

Fill
e----------------------------------------------------------
B----------------------------------------------------------
G--9-9-9-9--12-12--9-9--12-12-12-12------------------------
D--9-9-9-9--12-12--9-9--12-12-12-12------------------------
A--7-7-7-7--10-10--7-7--10-10-10-10------------------------
E----------------------------------------------------------


Chorus
e----------------------------------------------------------
B----------------------------------------------------------
G-------5-5-5-------7-7-7----------------------------------
D--5-5--5-5-5--5-5--7-7-7--9-9-9-9-9-9-9-9-9-9-9-9-9-9-9-9-
A--5-5--3-3-3--5-5--5-5-5--9-9-9-9-9-9-9-9-9-9-9-9-9-9-9-9-
E--3-3---------3-3---------7-7-7-7-7-7-7-7-7-7-7-7-7-7-7-7-

(continued)
e----------------------------------------------------------
B----------------------------------------------------------
G-------5-5-5-------7-7-7----------------------------------
D--5-5--5-5-5--5-5--7-7-7--4---4-4-4-4-4-4-----------------
A--5-5--3-3-3--5-5--5-5-5--4---4-4-4-4-4-4-----------------
E--3-3---------3-3---------2---2-2-2-2-2-2-----------------

Riff
e----------------------------------------------------------
B----------------------------------------------------------
G--8--8--8-8--8--8------8--8--8-8--8--8--------------------
D--9--9--9-9--9--9--7---9--9--9-9--9--9--7-----------------
A--9--9--9-9--9--9--7---9--9--9-9--9--9--7-----------------
E--7--7--7-7--7--7--5---7--7--7-7--7--7--5-----------------


Bridge                                          end on
e-----------------------------------------------|----------
B-----------------------------------------------|----------
G-----------------------------------------------|-11-11-11-
D--4--4--4-4--4--4--2-2---4--4--4-4--4--4--2-2--|-11-11-11-
A--4--4--4-4--4--4--2-2---4--4--4-4--4--4--2-2--|--9--9--9-
E--2--2--2-2--2--2--0-0---2--2--2-2--2--2--0-0--|----------


Intro

Verse
Fill
Vese

Chorus

Riff

Verse
Fill

Verse

Chorus

Bridge

Verse
Fill

Verse

Chorus

Almost there ...

Sign in to get your own page with links to favourite songs and more. You are just one click away...

Login with Facebook Login with Google