Log in

One click and you are in

Login with Facebook Login with Google

Why sign up and log in

Guitar Tabs Explorer
Tom Odell bass tabs for Another love

Bass tabs

Tuning: Standard (E A D G)

Difficulty: Novice


Intro: 0:37

G|---------------------------------|-------9---------9--------------------|
D|---------2-----------2-----------|-10------9-10------9-10-5-2-----5-2---|
A|-3-3-3-5---0-7-2-3-5---0-7-2-3-3-|----10--------10------------2-3-----2-|
E|---------------------------------|--------------------------------------|



Verse 1: 1:35

G|---------------------------------|---------------------------------|-----------------|
D|-2-2-2-2-5-5-----2-2-2-2---------|---------2-2-2-2-2-2-2-2---------|-----------------|
A|-------------3-3---------2-2-2-2-|-3-3-3-5-----------------2-2-2-2-|-3-3-3-3-3-3-3-3-|
E|---------------------------------|---------------------------------|-----------------|

1:55

G|---------------------------------|
D|---------2-2---------------------|
A|-3-3-3-5-----0-0-7-7-7-7-2-2-2-2-|
E|---------------------------------|
(x4)

2:26

G|---------------------------------|
D|---------5---5---2---2-----------|
A|-3---3-------------------2---2---|
E|---------------------------------|
(x4)

G|---------------------------------|
D|---------2-2---------------------|
A|-3-3-3-5-----0-0-7-7-7-7-2-2-2-2-|
E|---------------------------------|
(x4)

3:28

G|---------------------------------|
D|---------5---5---2---2-----------|
A|-3---3-------------------2---2---|
E|---------------------------------|
(x4)


Outro: 3:52

G|-----------------|
D|-----5---2-------|
A|-3-----------2---|
E|-----------------|

ⓘ Bass guitar tab for 'Another Love' by Tom Odell, a male indie artist from Chichester, England. Tom Odell was born in 1990. Tom Odell is known for his in love rock/pop music.

Almost there ...

Sign in to get your own page with links to favourite songs and more. You are just one click away...

Login with Facebook Login with Google