GuitarTabsExplorer icon
GuitarTabsExplorer icon

Log in

Songbook

  • Log in to add and see bookmarks

Last visited songs

    No songs visited yet...

My Girlfriend Is A Witch by October Country

Bass tabs

Tuning: Standard (E A D G)

Intro:
G|-----------------|-----------------|
D|-----------------|---------5---5-6-|
A|-7---------------|-----7-7---7-----|
E|-----------------|-----------------|
  1 & 2 & 3 & 4 &  1 & 2 & 3 & 4 &


G|-----------------|-----------------|-----------------|---------9-7-----|
D|-7---7-7-7---7---|-6h7-7-7-6h7-7-7-|-6h7-7-7-6h7-7-7-|-6h7-7-7-----9-8-|
A|-----------------|-----------------|-----------------|-----------------|
E|-----------------|-----------------|-----------------|-----------------|
  1 & 2 & 3 & 4 &  1 & 2 & 3 & 4 &  1 & 2 & 3 & 4 &  1 & 2 & 3 & 4 &

Verse 1:

 "Riding high..."
G|-----------------|-----------------|-----------------|---------9-7-----|
D|-7---7-7-6h7-7-7-|-6h7-7-7-6h7-7-7-|-6h7-7-7-6h7-7-7-|-6h7-6h7-----9-8-|
A|-----------------|-----------------|-----------------|-----------------|
E|-----------------|-----------------|-----------------|-----------------|
  1 & 2 & 3 & 4 &  1 & 2 & 3 & 4 &  1 & 2 & 3 & 4 &  1 & 2 & 3 & 4 &

G|-----------------|-----------------|-----------------|---------9-7-----|
D|-7---7-7-6h7-7-7-|-6h7-7-7-6h7-7-7-|-6h7-7-7-6h7-7-7-|-6h7-7-7-----8---|
A|-----------------|-----------------|-----------------|-----------------|
E|-----------------|-----------------|-----------------|-----------------|
  1 & 2 & 3 & 4 &  1 & 2 & 3 & 4 &  1 & 2 & 3 & 4 &  1 & 2 & 3 & 4 &

Chorus:
                   "I know my..."
G|-----------------|-----------------|-----------------|-----------------|
D|-7---7---7---7---|-7-----------7---|-----------------|-----------------|
A|-----------------|-----7-----------|-5---5---5---5-5-|-4---3---/12\----|
E|-----------------|---------5-------|-----------------|-----------------|
  1 & 2 & 3 & 4 &  1 & 2 & 3 & 4 &  1 & 2 & 3 & 4 &  1 & 2 & 3 & 4 &

G|-----------------|-----------------|-----------------|-----------------|
D|-----------------|-6h7-7-7-----7---|-5-------3-------|-5-------3-------|
A|-2---1---/12\----|---------7-------|-----------------|-----------------|
E|-----------------|-----------------|-----------------|-----------------|
  1 & 2 & 3 & 4 &  1 & 2 & 3 & 4 &  1 & 2 & 3 & 4 &  1 & 2 & 3 & 4 &

G|-----------------|-----------------|
D|-2---------------|---------5---5-6-|
A|-----------------|---7---7---7-----|
E|-----------------|-----------------|
  1 & 2 & 3 & 4 &  1 & 2 & 3 & 4 &

Instrumental:

G|-----------------|-4h5-5-5-4h5-5-5-|-3h4-4-4-2h4-4-4-|-2h3-3-3-2h3-3-3-|
D|-7---7-7-6h7-7-7-|-----------------|-----------------|-----------------|
A|-----------------|-----------------|-----------------|-----------------|
E|-----------------|-----------------|-----------------|-----------------|
  1 & 2 & 3 & 4 &  1 & 2 & 3 & 4 &  1 & 2 & 3 & 4 &  1 & 2 & 3 & 4 &

Verse 2:

 "Spells fill..."
G|-----------------|-5---5-5------5--|-4---4-------4---|-3---3-3-5-5-3-3-|
D|-7---7-------7---|---------5-------|---------4-------|-----------------|
A|---------7-------|-----------------|-----------------|-----------------|
E|-----------------|-----------------|-----------------|-----------------|
  1 & 2 & 3 & 4 &  1 & 2 & 3 & 4 &  1 & 2 & 3 & 4 &  1 & 2 & 3 & 4 &

G|-----------------|-5---5--------5--|-4---4-------4---|-3---3-------3---|
D|-7---7-------7---|---------5-------|---------4-------|---------3-------|
A|---------7-------|-----------------|-----------------|-----------------|
E|-----------------|-----------------|-----------------|-----------------|
  1 & 2 & 3 & 4 &  1 & 2 & 3 & 4 &  1 & 2 & 3 & 4 &  1 & 2 & 3 & 4 &

Chorus:
                   "I know my..."
G|-----------------|-----------------|-----------------|-----------------|
D|-7---7---7---7---|-7-----------7---|-----------------|-----------------|
A|-----------------|-----7-----------|-5---5-5-5---5-5-|-4---3---/12\----|
E|-----------------|---------5-------|-----------------|-----------------|
  1 & 2 & 3 & 4 &  1 & 2 & 3 & 4 &  1 & 2 & 3 & 4 &  1 & 2 & 3 & 4 &

G|-----------------|-----------------|-----------------|-----------------|
D|-----------------|-7---7-7-----7-6-|-5-------3-------|-5-------3-------|
A|-2---1---/12\----|---------7-------|-----------------|-----------------|
E|-----------------|-----------------|-----------------|-----------------|
  1 & 2 & 3 & 4 &  1 & 2 & 3 & 4 &  1 & 2 & 3 & 4 &  1 & 2 & 3 & 4 &

G|-----------------|-----------------|
D|-2---------------|---------5---5-6-|
A|-----------------|-----7-7---7-----|
E|-----------------|-----------------|
  1 & 2 & 3 & 4 &  1 & 2 & 3 & 4 &

Solo:

G|-----------------|-----------------|-----------------|-----------------|
D|-6h7-7-7-6h7-7-7-|-6h7-7-7-6h7-7-7-|-6h7-7-7-6h7-7-7-|-6h7-7-7-6h7-7-7-|
A|-----------------|-----------------|-----------------|-----------------|
E|-----------------|-----------------|-----------------|-----------------|
  1 & 2 & 3 & 4 &  1 & 2 & 3 & 4 &  1 & 2 & 3 & 4 &  1 & 2 & 3 & 4 &

G|-----------------|-----------------|-----------------|---------9-7------|
D|-6h7-7-7-6h7-7-7-|-6h7-7-7-6h7-7-7-|-6h7-7-7-6h7-7-7-|-6h7-7-7-----10-9-|
A|-----------------|-----------------|-----------------|------------------|
E|-----------------|-----------------|-----------------|------------------|
  1 & 2 & 3 & 4 &  1 & 2 & 3 & 4 &  1 & 2 & 3 & 4 &  1 & 2 & 3 & 4 &

G|-----------------|-----------------|-----------------|---------------------|
D|-6h7-7-7-6h7-7-7-|-6h7-7-7-6h7-7-7-|-6h7-7-7-6h7-7-7-|-6h7-7-7-6-/12-12-12-|
A|-----------------|-----------------|-----------------|---------------------|
E|-----------------|-----------------|-----------------|---------------------|
  1 & 2 & 3 & 4 &  1 & 2 & 3 & 4 &  1 & 2 & 3 & 4 &  1 & 2 & 3 & 4 &

G|-----------------|-----------------|-----------------|-----------------|
D|-7---7-7-6h7-7-7-|-6h7-7-7-6h7-7-7-|-6h7-7-7-6h7-7-7-|-6h7-7-7-6h7-7---|
A|-----------------|-----------------|-----------------|-----------------|
E|-----------------|-----------------|-----------------|-----------------|

G|-----------------|-----------------|-----------------|---------9-7------|
D|-6h7-7-7-6h7-7-7-|-6h7-7-7-6h7-7-7-|-6h7-7-7-6h7-7-7-|-6h7-7-7-----10-9-|
A|-----------------|-----------------|-----------------|------------------|
E|-----------------|-----------------|-----------------|------------------|
  1 & 2 & 3 & 4 &  1 & 2 & 3 & 4 &  1 & 2 & 3 & 4 &  1 & 2 & 3 & 4 &

G|-----------------|-----------------|-----------------|-----------------|
D|-6h7-7-7-6h7-7-7-|-6h7-7-7-6h7-7-7-|-6h7-7-7-6h7-7-7-|-6h7-7-7-----5-6-|
A|-----------------|-----------------|-----------------|-----------7-----|
E|-----------------|-----------------|-----------------|-----------------|
  1 & 2 & 3 & 4 &  1 & 2 & 3 & 4 &  1 & 2 & 3 & 4 &  1 & 2 & 3 & 4 &

Chorus:
                   "I know my..."
G|-----------------|-----------------|-----------------|-----------------|
D|-7---7---7---7---|-7-----------7---|---------7---7---|-----------------|
A|-----------------|-----7-----------|-5---5-----5---5-|-4---3---/12\----|
E|-----------------|---------5-------|-----------------|-----------------|
  1 & 2 & 3 & 4 &  1 & 2 & 3 & 4 &  1 & 2 & 3 & 4 &  1 & 2 & 3 & 4 &

G|-----------------|-----------------|-----------------|-----------------|
D|-----------------|-7---7-7-----7---|-5-------3-------|-5-------3-------|
A|-2---1---/12\----|---------7-------|-----------------|-----------------|
E|-----------------|-----------------|-----------------|-----------------|
  1 & 2 & 3 & 4 &  1 & 2 & 3 & 4 &  1 & 2 & 3 & 4 &  1 & 2 & 3 & 4 &

G|-----------------|-----------------|
D|-2---------------|---------5---5-6-|
A|-----------------|-----7-7---7-----|
E|-----------------|-----------------|
  1 & 2 & 3 & 4 &  1 & 2 & 3 & 4 &

Instrumental:

G|-----------------|-----------------|-----------------|-------9---9---9-|
D|-7---7-------7---|-6h7-7-7-6h7-7-7-|-6h7-7-7-6h7-7-7-|-7---------------|
A|---------7-------|-----------------|-----------------|-----------------|
E|-----------------|-----------------|-----------------|-----------------|
  1 & 2 & 3 & 4 &  1 & 2 & 3 & 4 &  1 & 2 & 3 & 4 &  1 & 2 & 3 & 4 &

Verse 3:

 "What a fate..."
G|-----------------|-----------------|-----------------|-----------------|
D|-7---7-7-6h7-7-7-|-6h7-7-7-6h7-7-7-|-6h7-7-7-6h7-7-7-|-------------5-6-|
A|-----------------|-----------------|-----------------|---7---7---7-----|
E|-----------------|-----------------|-----------------|-----------------|
  1 & 2 & 3 & 4 &  1 & 2 & 3 & 4 &  1 & 2 & 3 & 4 &  1 & 2 & 3 & 4 &

G|-----------------|-----------------|-----------------|-----------------|
D|-7---7-7-6h7-7-7-|-6h7-7-7-6h7-7---|-6h7-7-7-6h7-7-7-|-6h7-7-7-7-------|
A|-----------------|-----------------|-----------------|-----------7---7-|
E|-----------------|-----------------|-----------------|-----------------|
  1 & 2 & 3 & 4 &  1 & 2 & 3 & 4 &  1 & 2 & 3 & 4 &  1 & 2 & 3 & 4 &

Chorus:
                   "I know my..."
G|-----------------|-----------------|-----------------|-----------------|
D|-7---7---7---7---|-7-6-5-----------|-----------------|-----------------|
A|-----------------|-------7-5-7-5---|-5---5---5---5---|-4---3---/12\----|
E|-----------------|---------------7-|-----------------|-----------------|
  1 & 2 & 3 & 4 &  1 & 2 & 3 & 4 &  1 & 2 & 3 & 4 &  1 & 2 & 3 & 4 &

G|-----------------|-----------------|
D|-----------------|-----------------|
A|-2---1---/12\----|-----------------|
E|-----------------|-----------------|
  1 & 2 & 3 & 4 &  1 & 2 & 3 & 4 &

***********************************

| /  Slide up
| \  Slide down
| H  Hammer-on

***********************************

[ Privacy | About us ]

Welcome to the guitar community

Why join and log in?
- Get songbook with favourite songs
- Get custom made front page
- Submit chords and tabs
- Submit guitar-cover videos
- Get a lot of thumbs up for your work

Songbook

Last visited songs

Site
Home
Search
Community
Submit chords

Video

No video for this page. Check out how you can submit guitar-cover videos here

Search tabs and chords

Browse by artist

A B C D E F G H I J K L M N O P Q R S T U V W X Y Z #


Menu

Search

Video

Bookmark

Login