Log in

One click and you are in

Login with Facebook Login with Google

Why sign up and log in

Guitar Tabs Explorer
Sinéad O'Connor tabs for Moorlaugh shore

Guitar tabs with lyrics

The moorlaugh shore – sinead o’connor

Play this at the start as intro, then use for the first line of the song.
E--------------0------------------------------------------------------------0-
B---------0----------0--------------3----------1^0----------3-------0------
G-----------0-----0-----------2----------------------------2------------0---
D-----2---------------------0----0----------2-----------0----------2--------
A------------------------------------------0----------------------------------
E--0----------------------2----------------------------2----------0----------
               Eminor                          A chord diagramD MajorD+F#bass         Aminor           A chord diagramD MajorD+F#bass          Eminor

Repeat this over and over again until the end of the song, play along to the singer, not the other way round
E---------------0--------------------------------------------------------------------
B----------0--------0-------------3---------0----------1-------------------1----1-
G------------0----0-----------2---------------0---------------0--------------------
D------2--------------------0---0--------2-----------2--------2---------2--- ---2-
A----------------------------------------------------3----------2--------3--------0-
E---0---------------------2-------------0----------------------0---------------------
                  Eminor                  A chord diagramD MajorD+F#bass          Cmajor        A chord diagramD MajorD+F#bass  Aminor    Eminor

E--------------------------------------------------------------------------------------
B------------------3-------------0-------------------------3----------0--------------
G---------------2----------------------------0-----------2-----------0---------------
D------------------------------------------2---2------0------------2-----------------
A---------------------------------3-----0-------------------------2------------------
E------------2--------------------------------------2-------------0-------------------
                  A chord diagramD MajorD+F#bass                       A chord diagramC majorC                  A chord diagramA augmentedA            A chord diagramD MajorD+F#bass       Eminor

A chord diagramD MajorD+F#bass indicates that it is the chord of A chord diagramD MajorD with the Bass note F#added, since I don’t know what the chord is.


Tabbed by Dave H-G. North Wales. 15thJuly2005. feel free to post any comments.

Almost there ...

Sign in to get your own page with links to favourite songs and more. You are just one click away...

Login with Facebook Login with Google