Search tabs and chords

Search for song, artist or band

Log in

One click and you are in

Login with Facebook Login with Google

Why sign up and log in

Guitar Tabs Explorer
Oceano guitar tabs for Inhuman affliction

Guitar tabs

|---------------------------------|
|---------------------------------|
|---------------------------------|
|-7-----9-8-------7-----9-8-------|   4x
|-4-0-0-6-5-0-0-0-4-0-0-6-5-0-0-0-|
|-4-1-1-6-5-1-1-1-4-1-1-6-5-1-1-1-|

tremolo pick single notes
|----------------------------------|
|----------------------------------|
|----------------------------------|
|----------------------------------|  4x
|-1-2-1----3-------2-------2-1-----|
|-2-3-2--3---6-2-5---5-2-5-----2-1-|

Gtr.1 and 2 switch off
|---------------------|
|---------------------|
|---------------------|
|---------------------|
|---------------------|
|-0000-0000-0000-0000-|

|-----------------------|
|-----------------------|
|-----------------------|
|-----------------------|   4x
|-0000-0000-0-0--0000-0-|
|-1111-1111-1-1--1111-1-|

|-------------------------------|
|-------------------------------|
|-------------------------------|
|-------------------------------|  2x
|-7-8--------------3------------|
|-----7-4-4-4-0-3-----4-3-3-3-0-|

|-------------------------------------------------|
|-------------------------------------------------|
|-14-14-14-15-15-15-18-18-18-17-17-17-17-17-17-17-|
|-------------------------------------------------|
|-------------------------------------------------|
|-------------------------------------------------|

|-------------------------------|
|-------------------------------|
|-17-18-17-10-10-10-9-9-9-9-9-9-|
|-------------------------------|
|-------------------------------|
|-------------------------------|

|-------------------------------------------------|
|-------------------------------------------------|
|-14-14-14-15-15-15-18-18-18-17-17-17-17-17-17-17-|
|-------------------------------------------------|
|-------------------------------------------------|
|-------------------------------------------------|

|-----------------------------------------|
|-----------18-18-18-17-17-17-17-17-17-17-|
|-17-18-17--------------------------------|   2x
|-----------------------------------------|
|-----------------------------------------|
|-----------------------------------------|

tremolo pick single notes
|----------------------------------|
|----------------------------------|
|----------------------------------|
|----------------------------------|  4x
|-1-2-1----3-------2-------2-1-----|
|-2-3-2--3---6-2-5---5-2-5-----2-1-|

|----------------------------------------------------------|
|----------------------------------------------------------|
|----------------------------------------------------------|
|------------------333-222------------------8--8--8--7-7-7-|   4x
|------------------555-444------------------10-10-10-8-8-8-|
|-0000000000000000---------0000000000000000----------------|

|-------|
|-------|
|-------|
|-0~----|
|-0~----|
|-0~----|

|-----------------|
|-----------------|
|-----------------|
|-----------------|  a bunch of times
|-2-1-4-2-1-5-2-1-|

Almost there ...

Sign in to get your own page with links to favourite songs and more. You are just one click away...

Login with Facebook Login with Google