Log in

One click and you are in

Login with Facebook Login with Google

Why sign up and log in

Guitar Tabs Explorer
Frank Ocean bass tabs for Sweet life

Bass tabs

Tuning: Standard (E A D G)


Verse 1: x3
G|---------------4-4-4---4-4-4--------------------2-2-2-2----|
D|-4-4---4-4-4-------------------2-2-2---2-2-2---------------|
A|-----------------------------------------------------------|
E|-----------------------------------------------------------|

G|---------------------------------4-4-------------------------------------|
D|-4-2-----2-4-4---4-4-4---4-4-4----------------2-2-2---2-2-2------------2-|
A|----4-2-4----------------------------2-2-2-------------------4-4----4-4--|
E|-------------------------------------------------------------------------|
Chorus: x1
G|-------------4-4-4------------------------2-2-2-2--|
D|4-4---4-4-4-----------------2-2-2--2-2-2-----------|
A|------------------2-2-2----------------------------|
E|---------------------------------------------------|

G|------------------------------------4-4-4------------------------------|
D|-4-2-------2-4-4---4-4-4---4-4-4----------------2-2-2--2-2-2---------2-|
A|-----4-2-4--------------------------------2-2-2---------------4-4--4---|
E|-----------------------------------------------------------------------|


Verse 2: x3
G|---------------4-4-4---4-4-4--------------------2-2-2-2----|
D|-4-4---4-4-4-------------------2-2-2---2-2-2---------------|
A|-----------------------------------------------------------|
E|-----------------------------------------------------------|

G|---------------------------------4-4-------------------------------------|
D|-4-2-----2-4-4---4-4-4---4-4-4----------------2-2-2---2-2-2------------2-|
A|----4-2-4----------------------------2-2-2-------------------4-4----4-4--|
E|-------------------------------------------------------------------------|

Chorus: x1
G|-------------4-4-4------------------------2-2-2-2--|
D|4-4---4-4-4-----------------2-2-2--2-2-2-----------|
A|------------------2-2-2----------------------------|
E|---------------------------------------------------|

G|------------------------------------4-4-4------------------------------|
D|-4-2-------2-4-4---4-4-4---4-4-4----------------2-2-2--2-2-2---------2-|
A|-----4-2-4--------------------------------2-2-2---------------4-4--4---|
E|-----------------------------------------------------------------------|


Bridge:
G|------6-6----6-6-----6-6----------6-5-3-1-1----------------------------------------------|
D|---------------------------------------------4-3-1---------------------------------------|
A|-4--4------4------4-----4--4-4-----------------------2--2-2---2---2-2-----1--1-1---1-1-1-|
E|-----------------------------------------------------------------------------------------|

G|--6-----6-------6-6----------6-4-3-1-----------------4-4---4-4-------------|
D|---------------------------------------------------------------------------|
A|-4-4--4-------4-------4--4-4--------------2--2-2---2-----2--------1--1-1---|
E|---------------------------------------------------------------------------|


Chorus: x1
G|-------------4-4-4------------------------2-2-2-2--|
D|4-4---4-4-4-----------------2-2-2--2-2-2-----------|
A|------------------2-2-2----------------------------|
E|---------------------------------------------------|

G|------------------------------------4-4-4------------------------------|
D|-4-2-------2-4-4---4-4-4---4-4-4----------------2-2-2--2-2-2---------2-|
A|-----4-2-4--------------------------------2-2-2---------------4-4--4---|
E|-----------------------------------------------------------------------|


Outro:
G|----6-------------4--------------4----4-----4-5-6--|
D|-4-4------4---------------2----2-------------------|
A|-----------2-----2-------2-------------0---0-------|
E|---------------------------------------------------|

G|----------------------4--------------------------|
D|-2-4---4-----4-------4-------2-----2-----2-------|
A|------4-------2-----2-------2-----2---------0-0--|
E|-------------------2-----------------------------|

G|-----------6------4-------------------------------------------|
D|---2-4----4-4----------------------2---2----------------------|
A|-2-----------4-----4-3-2---2-2----2---2----2-0-0-0-0-0-0-0-0--|
E|--------------------------------------------------------------|
ⓘ Bass guitar tab for 'Sweet Life' by Frank Ocean, a male r&b artist from New Orleans, Louisiana, USA. Frank Ocean was born in 1987.

Almost there ...

Sign in to get your own page with links to favourite songs and more. You are just one click away...

Login with Facebook Login with Google