Log in

One click and you are in

Login with Facebook Login with Google

Why sign up and log in

Guitar Tabs Explorer
Frank Ocean bass tabs for Songs for women

Bass tabs

G|--------------------------------------|
D|1-1-1-1---1-1-0-------3-3-3-3---3-5---|
A|--------1---------------------3-----7-|
E|--------------------------------------|

G|--------------------------------------|
D|1-1-1-1---1-1-0-------3-3-3-3---3-5---|
A|--------1---------------------3-----7-|
E|--------------------------------------|

ⓘ Bass guitar tab for 'Songs For Women' by Frank Ocean, a male r&b artist from New Orleans, Louisiana, USA. Frank Ocean was born in 1987.

Almost there ...

Sign in to get your own page with links to favourite songs and more. You are just one click away...

Login with Facebook Login with Google