Log in

One click and you are in

Login with Facebook Login with Google

Why sign up and log in

Guitar Tabs Explorer
Frank Ocean bass tabs for Seigfried

Bass tabs

Tuning: Standard (E A D G)

Rest until 1:42


Verse 2 - 1:42:

"I'm living over city..."

G|---------------------------------------------------------------------------|
D|--12-------9-------7----10--9---------7-----12--------7----12--12--9--7----|
A|-----10--7-------7---10------------7-----10--------7----10-----------------|
E|---------------------------------------------------------------------------|
"Been living in an idea..."

G|---------------------------------------------------------------------------|
D|----7----9---------7-----10--9-------7-----12--------7----12--9-7----7-----|
A|--7---10--------7----10-----------7-----10--------7----10---------10-------|
E|---------------------------------------------------------------------------|

"Maybe I'm a fool..."

G|---------------------------------------------------------------------------|
D|------------9-------------7--10--9----------9--12--------7-----12--9----9--|
A|-----10--7---------7--10--------------7--10----------7----10---------10----|
E|---------------------------------------------------------------------------|

"Two kids..."

G|---------------------------------------------------------------------------|
D|-----7-----9---------7----10--9---------7----12----------7----12--12--9----|
A|---7---10---------7----10------------7----10----------7----10-----------10-|
E|---------------------------------------------------------------------------|

"I'd rather live outside..."

G|---------------------------------------------------------------------------|
D|-----7----9---------7-----10--9-----------7----12--------------------------|
A|---7---10---------7----10--------------7----10-----------------------------|
E|---------------------------------------------------------------------------|


No bass for the rest of the song.


And that's it! The timing is a bit weird for some of it but if you
play with the song you can get it easy.

Let me know if I got anything wrong! :)

ⓘ Bass guitar tab for 'Seigfried' by Frank Ocean, a male r&b artist from New Orleans, Louisiana, USA. Frank Ocean was born in 1987.

Almost there ...

Sign in to get your own page with links to favourite songs and more. You are just one click away...

Login with Facebook Login with Google