Log in

One click and you are in

Login with Facebook Login with Google

Why sign up and log in

Guitar Tabs Explorer
Frank Ocean bass tabs for Pink and white

Bass tabs

Intro:

G|-------9--12-16-12-|-------7--11-14-11-|-------6--9--13-9--|----6--9--13-13-13-|
D|----10-------------|----9--------------|----7--------------|-------------------|
A|-------------------|-------------------|-0-----------------|-0-----------------|
E|-8-----------------|-7-----------------|-------------------|-------------------|
  E E E E. S E  E E E E. S E  E E E E. S E  E E E E. S E
Verse 1:

G||----------16-12--------|-------7--11-14-11-|-------6--9--13-9--|----6--9--13-13-13-|
D||o----10-14-------14-10-|----9--------------|----7--------------|-------------------|
A||o----------------------|-------------------|-0-----------------|-0-----------------|
E||--8--------------------|-7-----------------|-------------------|-------------------|
   E E E S E S E  E E E E. S E  E E E E. S E  E E E E. S E

                                        x3
G|-------9--12-16-12-|-------7--11-14-11-|-------6--9--13-9--|----6--9--13-13-13--||
D|----10-------------|----9--------------|----7--------------|-------------------o||
A|-------------------|-------------------|-0-----------------|-0-----------------o||
E|-8-----------------|-7-----------------|-------------------|--------------------||
  E E E E. S E  E E E E. S E  E E E E. S E  E E E E. S E


Chorus 1:

G||----------16-12--------|-------7--11-14-11-|-------6--9--13-9--|----6--9--13-13-13--||
D||o----10-14-------14-10-|----9--------------|----7--------------|-------------------o||
A||o----------------------|-------------------|-0-----------------|-0-----------------o||
E||--8--------------------|-7-----------------|-------------------|--------------------||
   E E E S E S E  E E E E. S E  E E E E. S E  E E E E. S E


Verse 2:

8 Bars Rest

G|-------------------|-2-----------------|-------------------|-------------------|
D|-------------------|-------------------|-------------------|-------------------|
A|-0-----------------|-------------------|-0-----------------|-0-----------------|
E|-------------------|-------------------|-------------------|-------------------|
  H.         H.         H.         H.

G|-------------------|-------------------|-----------6/8\6---|-------------------|
D|-2--------------2--|-0-------------2-0-|---------6-------6-|-------------------|
A|-------------------|-------------------|-4-----------------|-4-----------------|
E|----------0--------|-------------------|-------------------|-------------------|
  Q.    Q   E  Q.    Q  Q Q  Q.  S S S S S S  H.

G|-------------------|-2-----------------|-------------------|-------------------|
D|-------------------|-------------------|-------------------|-------------------|
A|-0-----------------|-------------------|-0-----------------|-------------------|
E|-------------------|-------------------|-------------------|-------------------|
  H.         H.         H.         H.

Chorus 2/Outro:

G||--------9--12-16-12-|-------7--11-14-11-|-------6--9--13-9--|----6--9--13-13-13-|
D||o----10-------------|----9--------------|----7--------------|-------------------|
A||o-------------------|-------------------|-0-----------------|-0-----------------|
E||--8-----------------|-7-----------------|-------------------|-------------------|
   E E E E. S E  E E E E. S E  E E E E. S E  E E E E. S E

                                              x3
G|----------16-12-------|-------7--11-11-14-11-|-------6--9-13-13-9--|----6--9--13-13-13-13--||
D|----10-14-------14-10-|----9-----------------|----7----------------|----------------------o||
A|----------------------|----------------------|-0-------------------|-0--------------------o||
E|-8--------------------|-7--------------------|---------------------|-----------------------||
  E E E S E S E  E E E E S S E  E E E E S S E  E E E E. S S S


Key to rhythm notations:

W - Whole Note/Semi-Brieve
H - Half Note/Minim
Q - Quarter Note/Crotchet    Q. - Dotted Quarter Note
E - Eight Note/Quaver      E. - Dotted Eight Note
S - Sixteenth Note/Semi-Quaver S. - Dotted Sixteenth Note

***********************************

| /  Slide-up
| \  Slide-down

***********************************

Almost there ...

Sign in to get your own page with links to favourite songs and more. You are just one click away...

Login with Facebook Login with Google