Log in

One click and you are in

Login with Facebook Login with Google

Why sign up and log in

Guitar Tabs Explorer
Frank Ocean bass tabs for Ivy

Bass tabs

Tuning: Standard (E A D G)


Chorus:

G|------------------------|----------------------|---------------------|----------------------|
D|------------------------|----------------------|----------------10---|----------------------|
A|15-15-15-15-15-15-15-15-|17-17--17-17-17-17-17-|12-12--12-12-12---12-|17-17--17-17-17-17-17-|
E|------------------------|----------------------|---------------------|----------------------|

G|--------------------|----------------------|----------------------|--------------------|
D|--------------------|----------------------|----------10----10----|--------------------|
A|15-15--15--15-15-15-|17-17--17-17-17-17-17-|12-12--12----12----12-|17-17--17-17-17--17-|
E|--------------------|----------------------|----------------------|--------------------|

G|----------------------|--------------------|----------------------|--------------------|
D|----------------------|--------------------|----------10----10----|--------------------|
A|15-15--15-15-15-17-15-|17-17--17--17-17-17-|12-12--12----12----12-|17-17--17-17-17--17-|
E|----------------------|--------------------|----------------------|--------------------|

G|--------------------|------------------|----------------------|--------------------|
D|--------------------|------------------|----------------------|--------------------|
A|-15--15-15-15-17-15-|17-17--17--17--17-|12-12--12-12-12-15-15-|17-17--17--17-17-17-|
E|--------------------|------------------|----------------------|--------------------|


Verse 1:

G|----------------------|---------------|--------------------|----------10------|
D|----------------------|---------------|--------------------|-------10----10---|
A|10-10--10-10-10-10-10-|8-8--8-8-8-8-8-|10-10--10--10-10-10-|8-8--8----------8-|
E|----------------------|---------------|--------------------|------------------|

G|----------------12\--|---------------|--------------------|----------------17----|
D|----------12---------|---------------|----------19--------|----------17----------|
A|10-10--10----10------|8-8--8-8-8--8/-|17-17--17----17--17-|15-15--15----15----15-|
E|---------------------|---------------|--------------------|----------------------|

G|--------------------|----------------------|----------------------|----------------------|
D|--------------------|12-12--12-12-12-12-12-|----------14----14----|12-12--12-12-12-12-12-|
A|--------------------|----------------------|----------------------|----------------------|
E|12-12--12-12-12--12-|----------------------|12-12--12----12----12-|----------------------|

G|----------------------|-----------------------|----------------------|---------------10-|
D|----------------------|-----------------------|----------------------|------------10----|
A|15-15--15-15-15-15-15-|17-17--17-17-17-17-17\-|10-10--10-10-10-10-10-|8-8-8-8-8-8-------|
E|----------------------|-----------------------|----------------------|------------------|

G|--------------------|---------10---------|--------------------|----------------|
D|--------------------|----10------10---10-|--------------------|----------------|
A|10-10--10-10-10--10-|8-8----8-------8----|10-10--10-10-10--10-|8-8--8-8-8-8-8/-|
E|--------------------|--------------------|--------------------|----------------|


Chorus:

G|------------------------|------------------------|------------------------|--------------------|
D|------------------------|------------------------|------------------------|--------------19----|
A|17-17-17-17-17-17-17-17-|15-15-15-15-15-15-15-15-|12-12-12-12-12-12-12-12-|17-17--17--17----17-|
E|------------------------|------------------------|------------------------|--------------------|

G|--------------------|------------------|----------------------|--------------------|
D|--------------------|------------------|-------------------14-|12-12--12--12-12-12-|
A|15-15--15--15-15-15-|17-17--17--17--17-|12-12--12-15-12-15----|--------------------|
E|--------------------|------------------|----------------------|--------------------|

G|----------------12\--|-------------|-----------------12-|--------------|
D|----------12---------|-------------|--------------12----|--------------|
A|10-10--10----10------|8-8--8--8--8-|10-10--10--10-------|8-8--8--8-8-8-|
E|---------------------|-------------|--------------------|--------------|

G|------------------|------------------------|----------------------|--------------------|
D|------------------|------------------------|----------------------|--------------------|
A|-14--14--14-14-14-|15-15-15-15-19-19-19-19-|12-12--12-12-12-15-15-|17-17--17--17-17-17-|
E|------------------|------------------------|----------------------|--------------------|


Verse 2:

G|--------------------|--------------|------------12--------|-------------10---|
D|--------------------|--------------|------12-------12--12-|----------10------|
A|10-10--10-10-10--10-|8-8--8-8-8--8-|10-10----10-----------|8-8-8-8-8-------8-|
E|--------------------|--------------|----------------------|------------------|

G|-------------------|------------------------|------------------------|--------------------|
D|-------------------|------------------------|------------------------|--------------------|
A|14-14--14-14-14--14|15-15-15-15-19-19-19-19-|17-17-17-17-17-17-17-17-|--------------------|
E|-------------------|------------------------|------------------------|12-12--12-12-12--12-|

G|----------------------|----------------------|-----------------------|------------------|
D|----------------------|----------------------|-----------------------|------------------|
A|15-15--15-15-15-12-15-|17-17--17-17/19-17-15-|-12--12-15-15/19-17-15-|17-17--17--17--17-|
E|----------------------|----------------------|-----------------------|------------------|

G|-------------------------|----------------------|----------------------|--------------------|
D|----------------17-------|----------------------|----------------------|--------------------|
A|15-15--15-15/19----19-15-|17-17--17-17-17-10-10-|12-12--12-12-12-15-15-|17-17--17-17-17--17-|
E|-------------------------|----------------------|----------------------|--------------------|


Bridge:

G|--------------------|------------10----|-----------12-------|--------------|
D|--------------------|-------10------10-|-----------------12-|--------------|
A|10-10--10-10-10--10-|8-8--8----8-------|10-10--10-----10----|8-8--8-8-8--8-|
E|--------------------|------------------|--------------------|--------------|

G|-------------12-------|-----------10----|-------------12-------|--------------|
D|-------12----------12-|------10------10-|-------12----------12-|--------------|
A|10-10-----10----10----|-8--8----8-------|10-10-----10----10----|8-8--8-8-8--8-|
E|----------------------|-----------------|----------------------|--------------|



Chorus:

...couldn't see you coming
          (start)

G|------------------|----------------|------------------|------------10----|
D|------------------|----------------|------------------|-------10------10-|
A|12-12--12--12--12-|-17--17--17--17-|10-10--10--10--10-|8-8--8----8-------|
E|------------------|----------------|------------------|------------------|

G|-------------12-------|---------------|-------------------|-----------------------|
D|----------12----12----|---------------|-------------------|-----------------------|
A|10-10--10----------10-|8-8--8-8-8-8-8-|-15-15-15-15-15-15-|17-17--17-17-17--17h19-|
E|----------------------|---------------|-------------------|-----------------------|

G|--------------------|-----------------------|
D|--------------------|-----------------------|
A|12-12--12--12-15-12-|17-17--17-17-17--15h17-|
E|--------------------|-----------------------|



Outro:

G|--------------------|------------10----|-------------12-------|--------------10----|
D|--------------------|---------10----10-|-------12----------12-|--10-------10----10-|
A|10-10--10-10-10--10-|8-8--8-8----------|10-10-----10----10----|8----7-8-8----------|
E|--------------------|------------------|----------------------|--------------------|

G|---------------|--------------|--------------------|--------------------|
D|9-9--9-9-9-9-9-|7-7--7-7-7--7-|10-10--10-10-10--10-|12-12--12-12-12--12-|
A|---------------|--------------|--------------------|--------------------|
E|---------------|--------------|--------------------|--------------------|

G|-------------------------|---------10---------|----------------12----|----------------|
D|-------------------------|----10------10---10-|----------12-------12-|----------------|
A|10-10-10-10-10-10-10-10\-|8-8----8-------8----|10-10--10----10-------|8-8-8-8-8-8-8-8-|
E|-------------------------|--------------------|----------------------|----------------|

G|------------12----12/14\12-|--------------------|----------------12----|---------------|
D|------12-------------------|---------10/12\10---|----------12-------12-|---------------|
A|10-10----10----10----------|8-8--8-8----------8-|10-10--10----10-------|8-8-8-8-8-8-7-8|
E|---------------------------|--------------------|----------------------|---------------|

G|---------------12-------|
D|---------12----------12-|
A|10-10-10----10----10----|
E|------------------------|


| /  Slide up
| \  Slide down
| h  Hammer-on
ⓘ Bass guitar tab for 'Ivy' by Frank Ocean, a male r&b artist from New Orleans, Louisiana, USA. Frank Ocean was born in 1987.

Almost there ...

Sign in to get your own page with links to favourite songs and more. You are just one click away...

Login with Facebook Login with Google