Search tabs and chords

Search for song, artist or band

Log in

One click and you are in

Login with Facebook Login with Google

Why sign up and log in

Guitar Tabs Explorer
Frank Ocean guitar tabs for Be yourself acoustic

Guitar tabs

Tuning: Standard (E A D G B E)

Key: A chord diagramG MajorG

Difficulty: Advanced

Verse:
  A chord diagramG MajorG
e|------------0------------------------------------------------------|
B|--------------------3----------------------------------------------|
G|----------------------------2-------2h4-4-------2h4-4---2---0------|
D|-------------------------------------------------------------------|
A|-------------------------------------------------------------------|
E|----3---3---3---3---3---3---3---3---3---3---3---3---3---3---3------|

  A chord diagramG MajorG
e|------------0------------------------------------------------------|
B|--------------------3----------------------------------------------|
G|----------------------------2-------2h4-4-------2h4-2---0----------|
D|-------------------------------------------------------------------|
A|-------------------------------------------------------------------|
E|----3---3---3---3---3---3---3---3---3---3---3---3---3---3---3------|

  A chord diagramC majorC
e|------------0------------------------------------------------------|
B|--------------------3----------------------------------------------|
G|----------------------------2-------2h4-4-------0-----------0------|
D|----------------------------------------------------4---0h2--------|
A|----3---3---3---3---3---3---3---3---3---3---3---3---3---3---3------|
E|-------------------------------------------------------------------|

  A chord diagramC majorC                                                               Return to A chord diagramG MajorG on the pull-off
e|------------0------------------------------------------------------|
B|--------------------3----------------------------------------------|
G|----------------------------2-------2h4-4-------2---2h4-----0h2p0--|
D|--------------------------------------------------------0h2--------|
A|----3---3---3---3---3---3---3---3---3---3---3---3---3---3---3------|
E|-------------------------------------------------------------------|

Repeat as necessary

***********************************

| h   Hammer on
| p   Pull-off

***********************************

Other versions of Be Yourself Acoustic

Be yourselfTabs

Almost there ...

Sign in to get your own page with links to favourite songs and more. You are just one click away...

Login with Facebook Login with Google