Log in

One click and you are in

Login with Facebook Login with Google

Why sign up and log in

Guitar Tabs Explorer
Ocean Colour Scene tabs for Second hand car

Guitar tabs

Ocean Colour Scene
------------------

Second Hand Car from North Atlantic Drift

Tabbed by Peter Pearson (peter@lab6.com)

Listen to song for timings.
Verse:
------

     A chord diagramG+G
In a second ...
        A chord diagramD MajorD
You ran away ...
  A chord diagramA minorAm

  A chord diagramC majorC

  A chord diagramG+G

  A chord diagramD MajorD

  A chord diagramA minorAm

  A chord diagramC majorC


Chorus:
-------

     A chord diagramG+G
It's time..
            A chord diagramD MajorD
Time to run away ...
    A chord diagramE minorEm

    A chord diagramC majorC

Fills:
-----

Fills/solos start in bits at around 1:19.

There's a lot of reverb and echo on, so you might have to repeat
things to get them to sound right.


|------------------------8-7-8-7----------------------------|
|---------------7-8-10-----------10------------15--13-15----|
|-------------9-----------------------9s12s9----------------|
|------5-/9-------------------------------------------------|
|-/5-7------------------------------------------------------|
|-----------------------------------------------------------|


|-------------8-7-8-7---------------|
|----7-8-10-----------10---12-15----|
|-/9--------------------------------|
|-----------------------------------|
|-----------------------------------|
|-----------------------------------|


Main Solo:
----------

Starts at around 2:04.

                               ~~                       ~
|-------------------------------------------------------------------------|
|-10pb12r10-8----------8---10-10-------/12-10-8---8-h10-----10b12r10-8----|
|------------------7-9---9---------7-9----------9-------9-----------------|
|--------------7-9--------------------------------------------------------|
|-------------------------------------------------------------------------|
|-------------------------------------------------------------------------|

                   ~       ~   ~              ~
|--------------------------------------------------|
|--------------------------------------------------|
|-9-7----------------------------------------------|
|-----10-9-10-9-10-9-------5-7-7---7b9r7-5-h7-5----|
|----------------------5-7-------------------------|
|--------------------------------------------------|

                                                       ~~
|---------------------------12-------15---19-17----19------19-17----17-------|
|-10b12r10-8--/12--15-15-15----15-15------------20----20---------20----17----|
|----------------------------------------------------------------------------|
|----------------------------------------------------------------------------|
|----------------------------------------------------------------------------|
|----------------------------------------------------------------------------|

                      ~~~
|-/8-7-----------------------------------------------------------|
|------10-8-h10-8---/12-----------8---10b12==12-12-10b12r10-8----|
|-----------------------------7-9---9----------------------------|
|-------------------------7-9------------------------------------|
|----------------------------------------------------------------|
|----------------------------------------------------------------|


|-15\---3---------------------------------|
|------------8--10-8-10---/13-12----12----|
|------------7-------------------14-12----|
|-----------------------------------12----|
|-----------------------------------------|
|-----------------------------------------|

Other versions of Second Hand Car

Second hand carChords

Almost there ...

Sign in to get your own page with links to favourite songs and more. You are just one click away...

Login with Facebook Login with Google