Log in

One click and you are in

Login with Facebook Login with Google

Why sign up and log in

Guitar Tabs Explorer
Ocean Colour Scene bass tabs for July

Bass tabs

Album: One From The Modern
Bass Tab by:  "James"
		the_jimmy_james@hotmail

Dedicated to Paul and Mike, OCS are class!

Standard tuning: EADG
Intro Riff:
G: --------------------------------------------------------------------|
D: --------------------------------------------------------------------|
A: ----------------------------------7---------------------------------|
E: -0-0-12-0-0-12-0p3-0p5-0p7-0p7-9------------------------------------|

Play twice. Comes in with the drums after the guitar has played the riff
twice.

Then the verse:

G: --------------------------------------------------------------------|
D: --------------------------------------------------------------------|
A: --------------------------------------------------------------------|
E: -0-0--0-0--0-0--0-0--0-0--0-0--0-0--0-0--5--5--5--5--5--5--5---5----|

G: --------------------------------------------------------------------|
D: --------------------------------------------------------------------|
A: --------------------------------------------------------------------|
E: -3-3---3-3---3-3---3-3---3-3---3-3---3-3---3-3----------------------|

0r -3-3---33-3---3-3---33-3---(5)---3-3---33-3---3-3---33-3-|

G: --------------------------------------------------------------------|
D: --------------------------------------------------------------------|
A: --------------------------------------------------------------------|
E: -5-5--5--5-5--5--5-5--5--5-5--5---0---0---0---0---0---0---0---0-----|

G: --------------------------------------------------------------------|
D: --------------------------------------------------------------------|
A: --------------------------------------------------------------------|
E: -7---7---7---7---7---7---7---7--------------------------------------|

Chorus:
G: --------------------------------------------------------------------|
D: --------------------------------------------------------------------|
A: --------------------------------------------------------------------|
E: -0-0-0-0-5-5-5-5-0-0-0-0-5-5-5-5-0-0-0-0-5-5-5-5-0-0-0-0-5-5-5-5----|

Final end bit:
G: --------------------------------------------------------------------|
D: --------------------------------------------------------------------|
A: --------------------------------------------------------------------|
E: -0---3---5---7---9---10---11---12---0~------------------------------|


Song Order:


Intro riff

Verse

Chorus

Verse

Chorus

Intro riff

Verse

Chorus

Intro riff
End bit

Almost there ...

Sign in to get your own page with links to favourite songs and more. You are just one click away...

Login with Facebook Login with Google