Log in

One click and you are in

Login with Facebook Login with Google

Why sign up and log in

Guitar Tabs Explorer
Ocean Colour Scene chords for Half a dream away

Half A Dream Away chords - Ocean Colour Scene

Ocean Colour Scene chords for Half a dream away

Guitar chords with lyrics

Half A chord diagramA augmentedA Dream Away with Ocean Colour Scene (Revised)
This how I think Half A chord diagramA augmentedA Dream Away is played.I think it sounds quite right.
If you disagree you could always mail me at oscar.widegren@nykoping.com.
This song doesn't include any real chords except for during the trombone

solo and the fade-out when it's some kind of chords but they are very quite
so it's hard to tab that. After the fade-out there is a little part I didn't
manage to tab. But I will when I have time. The notes between the brackets
are them who are palm-muted or played very silent.
Revised: I have corrected the verse.
Intro :
A-----------------------------------------
E-8-8-7---7h8p7-5---3-2---8-8-7---7h8p7-5- x2

Verse:
We're just half a ....

Verse is played:
e-2h3p2------------2h3p2---------------
B-------3---(3)----------3---5h6p5-----
G---------2----(2)---------0-------5---
D------------------------------------5-
e-(3)-2h3p2------------------------------
B-----------(3)--------------------------
G---------------2--(5)--(5)--------------
D------------------(3)--(3)--(0)-(3)s5-7-
e-(3)---2h3p2------------2h3p2---------------
B-------------3---(3)----------3---5h6p5-----
G---------------2----(2)---------0-------5---
D------------------------------------------5-
e-(3)-2h3p2------------------------------
B-----------(3)--------------------------
G---------------2--(5)--(5)--------------
D------------------(3)--(3)--(0)-(3)s5-7-

Chorus:
The magpie screeched and the window ....

Chorus is played:
A-----------------------------------------
E-8-8-7---7h8p7-5---3-2---8-8-7---7h8p7-5- x2

Verse 2:
We spend half our ....

Verse 2 is played:
e-2h3p2------------2h3p2---------------
B-------3---(3)----------3---5h6p5-----
G---------2----(2)---------0-------5---
D------------------------------------5-
e-(3)-2h3p2------------------------------
B-----------(3)--------------------------
G---------------2--(5)--(5)--------------
D------------------(3)--(3)--(0)-(3)s5-7-

e-(15...)---2h3p2------------2h3p2--------------
B-----------------3---(3)----------3---5h6p5----
G-------------------2----(2)---------0-------5--
D----------------------------------------------5
e-(3)-2h3p2----------------------
B-----------(3)------------------
G---------------2----------------
D--------------------(0)-(3)s5-7-


Chorus 2:
The tree was bare but the ....

Chorus 2 is played:
A-----------------------------------------
E-8-8-7---7h8p7-5---3-2---8-8-7---7h8p7-5- x2
Trombone solo

Chorus 3 & 4:
The rainbow frowned when the sun .....

Chorus 3 & 4 is played:
A-----------------------------------------
E-8-8-7---7h8p7-5---3-2---8-8-7---7h8p7-5- x4
Fade-out:
We're just half a ....x4
Mysterious part

-
Oscar Widegren <oscar.widegren@nykoping.com

Almost there ...

Sign in to get your own page with links to favourite songs and more. You are just one click away...

Login with Facebook Login with Google