Log in

One click and you are in

Login with Facebook Login with Google

Why sign up and log in

Guitar Tabs Explorer
The Ocean Blue bass tabs for Ballerina out of control

Ballerina Out Of Control bass tab by The Ocean Blue

The Ocean Blue bass tabs for Ballerina out of control

Bass tabs

Tuning: E-A-D-G


Intro and bridge:

G |-----------------|-----------------|-----------------|-----------------|
D |-----------------|-----------------|-----------------|-----------------|
A |-3---3---3---3---|-----------------|-3---3---3---3---|-----------------|
E |-----------------|-3---3---3---3---|-----------------|-3---3---3---3---|
  1 & 2 & 3 & 4 &  1 & 2 & 3 & 4 &  1 & 2 & 3 & 4 &  1 & 2 & 3 & 4 &
Verses:

G |--------------|---------------|------------|---------------|
D |--------------|---------------|------------|---------------|
A |3-3333333333-5|------5-5------|3333333333-5|------5-5------| x 4
E |--------------|3-3333---3-333-|------------|3-3333---3-333-|


Chorus:

G |--------------------------|
D |--------------------------|
A |3-333333555555333333333333| x 2 for the first chorus and x 4 for the 2nd chorus
E |--------------------------|


Outro is just the verse riff but the final measure is:

G |---------------|
D |---------------|
A |3-333333555555-|
E |--------------3|

Almost there ...

Sign in to get your own page with links to favourite songs and more. You are just one click away...

Login with Facebook Login with Google