Log in

One click and you are in

Login with Facebook Login with Google

Why sign up and log in

Guitar Tabs Explorer
Ocean Alley bass tabs for Baby come back

Bass tabs

Tuning: Standard (E A D G)

Key: Eb

Difficulty: Intermediate
Intro:

G|-------------------------|-------------------------|-------------------------|-------------------------|
D|-----8-8-----------------|-----5-5-----------------|-----8-8-----------------|-----5-5-----------------|
A|-------------------------|-------------------------|-------------------------|-------------------------|
E|-6------------------6h8\-|-3------------------3h4/-|-6------------------6h8\-|-3-------------------3-4-|

G|-------------------------|-------------------------|-------------------------|-------------------------|
D|-----8-8-----------------|-----5-5-----------------|-----8-8-----------------|-------------------------|
A|-------------------------|-------------------------|-------------------------|-----3-------------------|
E|-6------------------6h8\-|-3------------------3h4/-|-6------------------6h8\-|-3-----------------------|

G|-------------------------|-------------------------|-------------------------|-------------------------|
D|-----8-8-----------------|-----5-5-----------------|-----8-8-----------------|-------------------------|
A|-------------------------|-------------------------|-------------------------|-----3-------------------|
E|-6------------------6h8\-|-3------------------3h4/-|-6------------------6h8\-|-3-----------------------|


Verse 1:

G|-------------------------|-------------------------|-------------------------|-------------------------|
D|-----8-8-----------------|-----5-5-----------------|-----8-8-----------------|-----5-5-----------------|
A|-------------------------|-------------------------|-------------------------|-------------------------|
E|-6------------------6h8\-|-3------------------3h4/-|-6------------------6h8\-|-3------------------3-4--|

G|-------------------------|-------------------------|-------------------------|-------------------------|
D|-----8-8-----------------|-----5-5-----------------|-----8-8---------8-------|---------10-8------------|
A|-------------------------|-------------------------|-------------------6-8---|---8/10--------10-8------|
E|-6------------------6h8\-|-3------------------3h4/-|-6---------------------6-|-8------------------11-7-|

Chorus 1:

G|-------------------------|-------------------------|-------------------------|-------------------------|
D|-----6-6-----------------|------5------------------|-------------------------|----------------3----5-6-|
A|-------------------------|----5---5---3----5-3-1---|-------------------------|-3----5----6-------------|
E|-4------------------4h6\-|-3---------------------3-|-1----x-1------3-----x-3-|-------------------------|

G|-------------------------|-------------------------|-------------------------|-------------------------|
D|-----6-6-----------------|------5------------------|-------------------------|-------------------------|
A|-------------------------|----5---5---3----5-3-1---|-------------------------|-3-----------4-----------|
E|-4------------------4h6\-|-3---------------------3-|-1----x-1------3-----x-3-|-------------------------|

G|-------------------------|-------------------------|
D|-----8-8-----------------|-----5-5-----------------|
A|-------------------------|-------------------------|
E|-6------------------6h8\-|-3------------------3-4--|


Verse 2:

G|-------------------------|-------------------------|-------------------------|-------------------------|
D|-------------------------|-----5-5-----------------|-----8-8-----------------|-----5-5-----------------|
A|-------------------------|-------------------------|-------------------------|-------------------------|
E|--------6\----------6h8\-|-3------------------3h4/-|-6------------------6h8\-|-3------------------3-4--|

G|-------------------------|-------------------------|-------------------------|-------------------------|
D|-----8-8-----------------|-----5-5-----------------|-----8-8---------8-------|---------10-8------------|
A|-------------------------|-------------------------|-------------------6-8---|---8/10--------10-8------|
E|-6------------------6h8\-|-3------------------3h4/-|-6---------------------6-|-8------------------11-7-|


Chorus 2:

G|-------------------------|-------------------------|-------------------------|-------------------------|
D|-----6-6-----------------|------5------------------|-------------------------|----------------3----5-6-|
A|-------------------------|----5---5---3----5-3-1---|-------------------------|-3----5----6-------------|
E|-4-----------------4-6-4-|-3---------------------3-|-1----x-1------3-----x-3-|-------------------------|

G|-------------------------|-------------------------|-------------------------|-------------------------|
D|-----6-6-----------------|------5------------------|-------------------------|-------------------------|
A|-------------------------|----5---5---3----5-3-1---|-------------------------|-3-----------4-----------|
E|-4-----------------4-6-4-|-3---------------------3-|-1----x-1------3-----x-3-|-------------------------|

G|-------------------------|
D|-------------------------|
A|-15----------16----------|
E|---------------------13\-|


Bridge:

G|-------------------------|-------------------------|-------------------------|-------------------------|
D|------------------6------|-------------------------|------------------6------|-------------------------|
A|----------------6---6----|-------------------------|----------------6---6----|---------3---------------|
E|-4---------------------4-|-3------------------3--3-|-4---------------------4-|-3------------------3--3-|

G|-------------------------|-------------------------|-------------------------|-------------------------|
D|------------------6------|-------------------------|-------------------------|----------------3----5-6-|
A|----------------6---6----|---------3---------------|-------------------------|-3----5----6-------------|
E|-4---------------------4-|-3------------------/13\-|-1----x-1------3-----x-3-|-------------------------|


Chorus 3:

G|-------------------------|-------------------------|-------------------------|-------------------------|
D|-----6-6-----------------|------5------------------|-------------------------|----------------3----5-6-|
A|-------------------------|----5---5---3----5-3-1---|-------------------------|-3----5----6-------------|
E|-4-----------------4-6-4-|-3---------------------3-|-1----x-1------3-----x-3-|-------------------------|

G|-------------------------|-------------------------|-------------------------|-------------------------|
D|-----6-6-----------------|------5------------------|-------------------------|-------------------------|
A|-------------------------|----5---5---3----5-3-1---|-------------------------|-3-----------------------|
E|-4-----------------4-6-4-|-3---------------------3-|-1----x-1------3-----x-3-|-------------------------|

G|-------------------------|-------------------------|
D|-------------------------|----------------3----5-6-|
A|-------------------------|-3----5----6-------------|
E|-1-------------3---------|-------------------------|


Outro:

G|-------------------------|-------------------------|-------------------------|-------------------------|
D|-----6-6-----------------|------5------------------|-------------------------|----------------3----5-6-|
A|-------------------------|----5---5---3----5-3-1---|-------------------------|-3----5----6-------------|
E|-4-----------------4-6-4-|-3---------------------3-|-1/13\----1----3-----x-3-|-------------------------|

G|-------------------------|-------------------------|-------------------------|-------------------------|
D|-----6-6-----------------|------5------------------|-------------------------|----------------3----5-6-|
A|-------------------------|----5---5---3----5-3-1---|-------------------------|-3----5----6-------------|
E|-4-----------------4-6-4-|-3---------------------3-|-1/13\----1----3-----x-3-|-------------------------|

G|-------------------------|-------------------------|-------------------------|-------------------------|
D|----------------3----5-6-|----------------3----5-6-|----------------3----5-6-|-------------------------|
A|-3----5----6-------------|-3----5----6-------------|-3----5----6-------------|-1-----------------------|
E|-------------------------|-------------------------|-------------------------|-------------------------|

***********************************
| /   Slide up
| \   Slide down
| h   Hammer-on
| x   Dead note
***********************************

Almost there ...

Sign in to get your own page with links to favourite songs and more. You are just one click away...

Login with Facebook Login with Google