Search tabs and chords

Browse bands and artists

A B C D E F G H I J K L M N O P Q R S T U V W X Y Z #

Log in

[ Register here | Forgot password ]

Guitar Tabs Explorer
Print

Guitar tabs with lyrics:

Lift Me Up tab by Oc Supertones

Album: Loud and Clear
tab by : Kuya Joms from "Kadayawan Four Square - Bangkal, Davao City, Phiippines"
         0918-662-5434- for comment, request & suggestions.


Oral Verse1:

Lord, My God,
in the morning
Show me how
I can serve you today
Lord, My God, in the evening
Let my song
rise up to you.

Verse1
I know that you are holy,
I know that I'm unclean
And I'm afraid to come into your presence.
I know that I'm unworthy, To call upon your name
From all the way down here.

Chorus
So I say Lift me up
From my lowly estate
Lift me up
Where I can see you
clothed in Majesty and Light (2X)

(Instrumental)

Oral Verse2:

If you'd saved even one man
Surely this is undeserved
But the saints by your mercy
Stand with you uncountable

Verse2
Is this not amazing
Isn't your name grace
Aren't you the sovereign God of justice
Haven't we offended
Did we not crucify
Guess that we can only wonder why

Chorus
So I say Lift me up From my lowly estate Lift me up
Where I can see you clothed in Majesty and Light

Chord Pattern:A-D-E-A

Intro: Guitar
------------------------------|
------------------------------|
------------------------------|
-------11--------------11--11-|
-12(6x)---12(4x)-12(6x)--12---|
------------------------------|


-----------------------------------------------|
-----------------------------------------------|
-----------------------------------------------|
-----------------------------------------------|
-----------11-------------11-------------------|
-----12(6x)--12(4x)-12(6x)--12-10--------------|

verse:Bass (A-D-E-A)
-----------------------------------------------------------------------------|
-----------------------------------------------------------------------------|
------------------------------------------------------------7----------------|
------------------------9----9--------9-9----------7----7-7----7h9-7---------|
-----7-7----7-------9-9----9---9-7--7-----7--7-9-7----5--------------7-7-----|
-5-5----5-5--5-7--7----------------------------------------------------------|

chorus:Bass (A-D-E-A)
-----------------------------------------------------------------------------|
-----------------------------------------------------------------------------|
-----------------------------------------------------------------------------|
-------------------7-7-----7------9-9-------------7-7------7-7---------------|
-----7-7----7--5-5-----5-5----7-7-----7---------5-----5--5-------------------|
-5-5----5-5-----------------------------0-2-4-5------------------------------|

----------------------------|
----------------------------|
----------------------------|
----------------------------|
---5-7---5-7--5-7-----5-5-5-|
-5-----5-----5----5-5--5-5--|


(w/ wind instrument)

   D                A               E                  A
--------------------------------------------------------------------------|
--------------------------------------------------------------------------|
--------------------------------------------------------------------------|
--------7-7------7--------------------------------------------------------|
---5-5-----5--5--------7-7-----7------------------------------------------|
--------------------5-5-----5-5-----0-0h2--2-2h4-4-4h5-5-7-7-5---0-2-4-5--|


Outro:(repeat to end)

A                   D
-------------------------------------|
-------------------------------------|
-------------------------------------|
-----------------------7-7-----7-----|
-----7-7-----7-7----5------5-5-------|
-5-5----5--5-----5-------------------|

Comments

Oc Supertones guitar tabs for Lift me up