Log in

One click and you are in

Login with Facebook Login with Google

Why sign up and log in

Guitar Tabs Explorer
Obituary bass tabs for Slow death

Bass tabs

Riff A:

F|-------------|--------------------------------------------|
C|-------------|--------------------------------------------|
G|-------------|-------------------1------------------------|
D|-0-0-0-0-3~--|-0-0-0-0-3~----3-1--------------------------|(x2)
Riff B:

F|----------------------------------------------------------|
C|----------------------------------------------------------|
G|------------------------------------------1---------------|
D|-0-0-0-0-3~--0-0-0-0-0-0-4~---0-0-0-0-3-1-----------------|(x4)


Riff C:

F|----------------------------|-----------------------------|
C|----------------------------|-----------------------------|
G|----------------------------|--------------------------1--|
D|-0-0-0--0--0-0--0-0--0-0-1--|--0-0-0--0--0-0--0-0--0-0----|
                               >(x2)
F|----------------------------|-----------------------------|
C|----------------------------|-----------------------------|
G|----------------------------|---------------------1-------|
D|-0-0-0--0--0-0--0-0--0-0-1--|--0-0-0--0--0-0--0-0---1-----|


Riff A:

F|-------------|--------------------------------------------|
C|-------------|--------------------------------------------|
G|-------------|-------------------1------------------------|
D|-0-0-0-0-3~--|-0-0-0-0-3~----3-1--------------------------|

Riff B:

F|----------------------------------------------------------|
C|----------------------------------------------------------|
G|------------------------------------------1---------------|
D|-0-0-0-0-3~--0-0-0-0-0-0-4~---0-0-0-0-3-1-----------------|(x2)


Riff C:

F|----------------------------|-----------------------------|
C|----------------------------|-----------------------------|
G|----------------------------|--------------------------1--|
D|-0-0-0--0--0-0--0-0--0-0-1--|--0-0-0--0--0-0--0-0--0-0----|
                               >(x2)
F|----------------------------|-----------------------------|
C|----------------------------|-----------------------------|
G|----------------------------|---------------------1-------|
D|-0-0-0--0--0-0--0-0--0-0-1--|--0-0-0--0--0-0--0-0---1-----|


Riff D:

F|----------------------------------------------------------|
C|----------------------------------------------------------|
G|-------------4~-------------------------------------------|
D|-0~--2~--3~------0~---1-1-1-1-----------------------------|(x3)

F|----------------------------------------------------------|
C|----------------------------------------------------------|
G|-------------4~-------------------------------------------|
D|-0~--2~--3~-----------------------------------------------|


Riff E:

F|----------------------------------------------------------|
C|----------------------------------------------------------|
G|-------------------------------------3-2~-----------------|
D|-0~--0-0-0-0-0-1~--1-1-1-1-1-0~--0~--------2-3~-----------|(x4)

Last Part of Riff D:

F|----------------------------------------------------------|
C|----------------------------------------------------------|
G|-------------4~-------------------------------------------|
D|-0~--2~--3~-----------------------------------------------|


Riff A:

F|-------------|--------------------------------------------|
C|-------------|--------------------------------------------|
G|-------------|-------------------1------------------------|
D|-0-0-0-0-3~--|-0-0-0-0-3~----3-1--------------------------|


Riff B:

F|----------------------------------------------------------|
C|----------------------------------------------------------|
G|------------------------------------------1---------------|
D|-0-0-0-0-3~--0-0-0-0-0-0-4~---0-0-0-0-3-1-----------------|(x2)


Riff C:

F|----------------------------|-----------------------------|
C|----------------------------|-----------------------------|
G|----------------------------|--------------------------1--|
D|-0-0-0--0--0-0--0-0--0-0-1--|--0-0-0--0--0-0--0-0--0-0----|
                               >(x2)
F|----------------------------|-----------------------------|
C|----------------------------|-----------------------------|
G|----------------------------|---------------------1-------|
D|-0-0-0--0--0-0--0-0--0-0-1--|--0-0-0--0--0-0--0-0---1-----|


Outro:

F|----------------------------------------------------------|
C|----------------------------------------------------------|
G|-------------------1--------------------------------------|
D|-0-0-0-0-3~----3-1---0------------------------------------|

Almost there ...

Sign in to get your own page with links to favourite songs and more. You are just one click away...

Login with Facebook Login with Google