Log in

One click and you are in

Login with Facebook Login with Google

Why sign up and log in

Guitar Tabs Explorer
Obituary bass tabs for Internal bleeding

Bass tabs

Tuning: Standard (E A D G)

Difficulty: Novice


Intro (x2) :
G|-just-keep----------------------------------------|
D|-shredding----------------------------------------|x2
A|-open-E-------------------------------------------|
E|--0-0-0-0-0***--3-3-2-2-1-1-0-0--4-4-3-3-2-2-1-1--|

G|-just-keep---------------------------------------------------------|
D|-shredding---------------------------------------------------------|
A|-open-E------------------------------------------------------------|
E|--0-0-0-0-0***--3-3-2-2-1-1-0-0--4-4-3-3-2-2-1-1--3-3-2-2-1-1-0-0--|
Verse:
G|--------------------------|
D|--------------------------|x4
A|--------------------------|
E|--0-0-0-0-0-0-0-0-0-0--1--|

G|--------------------------|
D|--------------------------|x2
A|--------------------------|
E|--3-3-3-3-3-3-3-3-3-3--4--|

G|--------------------------|
D|--------------------------|x4
A|--------------------------|
E|--0-0-0-0-0-0-0-0-0-0--1--|

G|------------------------------------|
D|------------------------------------|x2
A|----------3-3-3-3----------1-1-1-1--|
E|--2-2-2-2----------2-2-1-1----------|

Solo:
G|------------------------------------|
D|------------------------------------|x6
A|----------3-3-3-3----------1-1-1-1--|
E|--2-2-2-2----------2-2-1-1----------|


Verse:
G|--------|------------------------|
D|--------|------------------------|
A|--2-----|--1---------------------|
E|-----2--|-----0-1-0-0-0-0-0-0-0--|

G|--------------------------------------------|
D|--------------------------------------------|x4
A|--2-------------------1---------------------|
E|-----2--0-0-0-0-0-0-0----0-1-0-0-0-0-0-0-0--|

G|----------------------------------------------|
D|----------------------------------------------|x4
A|--2---------------------1---------------------|
E|-----0-2-0-0-0-0-0-0-0----0-1-0-0-0-0-0-0-0---|


Ending :
G|--------------------------|
D|--------------------------|x4
A|--------------------------|
E|--0-0-0-0-0-0-0-0-0-0--1--|

G|--------------------------|
D|--------------------------|x2
A|--------------------------|
E|--3-3-3-3-3-3-3-3-3-3--4--|

G|--------------------------|
D|--------------------------|x4
A|--------------------------|
E|--0-0-0-0-0-0-0-0-0-0--1--|

G|-------|
D|-------|
A|-------|
E|--0-0--|

Almost there ...

Sign in to get your own page with links to favourite songs and more. You are just one click away...

Login with Facebook Login with Google