Log in

One click and you are in

Login with Facebook Login with Google

Why sign up and log in

Guitar Tabs Explorer
Obituary tabs for Inked in blood

Intro

-------------------------------------------------------------------------------
                             INKED IN BLOOD - Obituary
-------------------------------------------------------------------------------
Tabbed by: Ole Mikkelsen

Tuning: Drop A chord diagramD MajorD (D,A,D,G,B A chord diagramE MajorE)
-------------------------------------------------------------------------------
This tab shows to whole song from start to the end.

x - Mute note
. - Palm mute

(x4 = play 4 times)
Riff 1
|--------------------------------------|--------------------------------------|x2
|--------------------------------------|--------------------------------------|
|--------------------------------------|--------------------------------------|
|--------------------------------------|--------------------------------------|
|--7---7-7-----3--4-----5--3-----8--7--|--7---7-7-----3--4-----5--3-----5--2--|
|--5---5-5-----3--4-----3--1-----6--5--|--5---5-5-----3--4-----3--1-----3--0--|


Riff 2
|-----------------------------------|x6
|-----------------------------------|
|-----------------------------------|
|--2-------2-------2-----3x---------|
|--0-0-0-0-0-0-0-0-0-0-0-1x-3x-0-0--|
|---------------------------1x------|
pm . . .   . . .   . .         . .


Riff 1
|--------------------------------------|--------------------------------------|x1
|--------------------------------------|--------------------------------------|
|--------------------------------------|--------------------------------------|
|--------------------------------------|--------------------------------------|
|--7---7-7-----3--4-----5--3-----8--7--|--7---7-7-----3--4-----5--3-----5--2--|
|--5---5-5-----3--4-----3--1-----6--5--|--5---5-5-----3--4-----3--1-----3--0--|

Riff 2
|-----------------------------------|x4
|-----------------------------------|
|-----------------------------------|
|--2-------2-------2-----3x---------|
|--0-0-0-0-0-0-0-0-0-0-0-1x-3x-0-0--|
|---------------------------1x------|
pm . . .   . . .   . .         . .


Riff 4
|---------------------------------|-------------------------------|x1
|---------------------------------|-------------------------------|
|---------------------------------|-------------------------------|
|------------------------------3--|-------------------------------|
|--5-----------5-------5-------1--|--5---------5-------5-------3--|
|--3---0-0-0-0-3---0-0-3---0-0----|--3---0-0-0-3---0-0-3---0-0-1--|
pm     . . . .     . .     . .           . . .     . .     . .


Riff 2
|-----------------------------------|x4
|-----------------------------------|
|-----------------------------------|
|--2-------2-------2-----3x---------|
|--0-0-0-0-0-0-0-0-0-0-0-1x-3x-0-0--|
|---------------------------1x------|
pm . . .   . . .   . .         . .


Riff 1
|--------------------------------------|--------------------------------------|x2
|--------------------------------------|--------------------------------------|
|--------------------------------------|--------------------------------------|
|--------------------------------------|--------------------------------------|
|--7---7-7-----3--4-----5--3-----8--7--|--7---7-7-----3--4-----5--3-----5--2--|
|--5---5-5-----3--4-----3--1-----6--5--|--5---5-5-----3--4-----3--1-----3--0--|


Riff 4
|---------------------------------|-------------------------------|x2
|---------------------------------|-------------------------------|
|---------------------------------|-------------------------------|
|------------------------------3--|-------------------------------|
|--5-----------5-------5-------1--|--5---------5-------5-------3--|
|--3---0-0-0-0-3---0-0-3---0-0----|--3---0-0-0-3---0-0-3---0-0-1--|
pm     . . . .     . .     . .           . . .     . .     . .


Riff 5
|-------------------------------|-----------------------------|x2
|-------------------------------|-----------------------------|
|-------------------------------|-----------------------------|
|-------------------------------|-----------------------------|
|--5-----------5-------7-8-7-3--|--5-----------5-------7-8-6--|
|--3---0-0-0-0-3---0-0-5-6-5-1--|--3---0-0-0-0-3---0-0-5-6-4--|
pm     . . .       . .                 . . . .     . .


Riff 2
|-----------------------------------|x2
|-----------------------------------|
|-----------------------------------|
|--2-------2-------2-----3x---------|
|--0-0-0-0-0-0-0-0-0-0-0-1x-3x-0-0--|
|---------------------------1x------|
pm . . .   . . .   . .         . .


Riff 5
|-------------------------------|-----------------------------|x1
|-------------------------------|-----------------------------|
|-------------------------------|-----------------------------|
|-------------------------------|-----------------------------|
|--5-----------5-------7-8-7-3--|--5-----------5-------7-8-6--|
|--3---0-0-0-0-3---0-0-5-6-5-1--|--3---0-0-0-0-3---0-0-5-6-4--|
pm     . . .       . .                 . . . .     . .


Riff 2
|-----------------------------------|x2
|-----------------------------------|
|-----------------------------------|
|--2-------2-------2-----3x---------|
|--0-0-0-0-0-0-0-0-0-0-0-1x-3x-0-0--|
|---------------------------1x------|
pm . . .   . . .   . .


Riff 4
|---------------------------------|-------------------------------|x2
|---------------------------------|-------------------------------|
|---------------------------------|-------------------------------|
|------------------------------3--|-------------------------------|
|--5-----------5-------5-------1--|--5---------5-------5-------3--|
|--3---0-0-0-0-3---0-0-3---0-0----|--3---0-0-0-3---0-0-3---0-0-1--|
pm     . . . .     . .     . .           . . .     . .     . .


Riff 5
|-------------------------------|-----------------------------|x2
|-------------------------------|-----------------------------|
|-------------------------------|-----------------------------|
|-------------------------------|-----------------------------|
|--5-----------5-------7-8-7-3--|--5-----------5-------7-8-6--|
|--3---0-0-0-0-3---0-0-5-6-5-1--|--3---0-0-0-0-3---0-0-5-6-4--|
pm     . . .       . .                 . . . .     . .


Riff 1
|--------------------------------------|--------------------------------------|x2
|--------------------------------------|--------------------------------------|
|--------------------------------------|--------------------------------------|
|--------------------------------------|--------------------------------------|
|--7---7-7-----3--4-----5--3-----8--7--|--7---7-7-----3--4-----5--3-----5--2--|
|--5---5-5-----3--4-----3--1-----6--5--|--5---5-5-----3--4-----3--1-----3--0--|


Riff 4
|---------------------------------|-------------------------------|x2
|---------------------------------|-------------------------------|
|---------------------------------|-------------------------------|
|------------------------------3--|-------------------------------|
|--5-----------5-------5-------1--|--5---------5-------5-------3--|
|--3---0-0-0-0-3---0-0-3---0-0----|--3---0-0-0-3---0-0-3---0-0-1--|
pm     . . . .     . .     . .           . . .     . .     . .


Riff 5
|-------------------------------|-----------------------------|x4
|-------------------------------|-----------------------------|
|-------------------------------|-----------------------------|
|-------------------------------|-----------------------------|
|--5-----------5-------7-8-7-3--|--5-----------5-------7-8-6--|
|--3---0-0-0-0-3---0-0-5-6-5-1--|--3---0-0-0-0-3---0-0-5-6-4--|
pm     . . .       . .                 . . . .     . .

Almost there ...

Sign in to get your own page with links to favourite songs and more. You are just one click away...

Login with Facebook Login with Google