Log in

One click and you are in

Login with Facebook Login with Google

Why sign up and log in

Guitar Tabs Explorer
Obituary tabs for Infected

Guitar tabs with lyrics

** INFECTED
** off the album CAUSE OF DEATH
** by Obituary
** Transcribed by Kevin Phillips, kphill@iconz.co.nz

Well, I was pleased to get some reaction from my 'Cause of Death' tab,
and I was asked for INFECTED.  So, I scanned through a huge wad of paper and
found a few pages of TAB.  Note that Most of this could be wrong..
I don't have a Guitar to check all the riffs out (TAB is 4-5 years old!)
so I've been using Scream Tracker to experiment.  The guitar effects
are nowhere as good as the real thing, but I guess most of it sounded right!

If you have tabbed it, corrected it or find any problems then gimme an email
with your questions, Tab or corrections.  Thanks!

Until I get my Guitar back, I am almost Tabbed out, so don't ask for too many
more requests please!!  (See my Tabs - Slayer/Death/Obituary/Sepultura on
Nevada or one of its mirrors!)  I still have the odd bits of TAB around, though!

Enjoy!
Kev.  8)


INFECTED - Riffs:


Riff A:
e:---------------------------------------|
b:---------------------------------------|
g:---------------------------------------|
D:------4---------3---------4------------|
A:-4----2----3----1----4----2----5----3--|
E:-2----2----1----1----2----2----3----1--|


Riff B:
e:---------------------------|
b:---------------------------|
g:---------------------------|
D:-------4/5\4--3------------|
A:-2-----2/3\2--1--3----3/4--|
E:-0---------------1----1/2--|

Riff C:
e:------------------------------------------|
b:------------------------------------------|
g:------------------------------------------|
D:-4-------------------4/5---------------6--|
A:-2-------------4/5---2/3---5\4---------4--|
E:---0-0-0-0-0-0-2/3-0-----0-3\2-0-0-0-0----|
     x x x x x x     x     x     x x x x


Riff D:
e:-------------------------------------------------------|
b:-------------------------------------------------------|
g:-------------------------------------------------------|
D:----------------------------------5--4-----------4--3--|
A:----------------------------------3--2--5--4--2--2--1--|
E:-3-3-3-3-3-3-3-3-2-2-2-2-2-2-2-2--------3--2--0--------|
   x x x x x x x x x x x x x x x x


Riff E:
e:-------------------|
b:-------------------|
g:-------------------|
D:-4----3----4----3--|
A:-2----1----2----1--|
E:-2----1----2----1--|


Riff F:
e:-----------------------------------------------------------------|
b:-----------------------------------------------------------------|
g:-----------------------------------------------------------------|
D:-----------------------------------------------------------------|
A:-----------------------------------------------------------------|
E:-2-2-2-2-2-2-2-2-1-1-1-1-1-1-1-1-4-4-4-4-4-4-4-4-0-0-0-0-0-0-0-0-|
   x x x x x x x x x x x x x x x x x x x x x x x x x x x x x x x x


Riff G:
[  Missing.. Sorry, But I don't have the Guitar/Musical 'ear' to finish this
one.. If you Tab it, can someone email me it? (Same with any corrections)

Note that it sounds similiar to Riff C. (Clue!) ]


Riff H:
e:--------------------------------------------|
b:--------------------------------------------|
g:--------------------------------------------|
D:-4--5------------------3--4-----------------|
A:-2--3------3-------4---1--2------3-------4--|
E:-------0-0-1---0-0-2---------0-0-1---0-0-2--|
         x x     x x           x x     x x


INFECTED - Structure:

** Introduction:
Sound Effects, Wind, Chimes and Drums..


Riff A chord diagramA augmentedA x 2

Riff A chord diagramBB x 4  (with Lead Guitar)


Riff A chord diagramC majorC x 2

** Verse:

Riff A chord diagramC majorC x 8

Riff A chord diagramD MajorD x 4

** Verse:

Riff A chord diagramC majorC x 4

Riff A chord diagramD MajorD x 4

** Chorus:

Riff A chord diagramE MajorE x 4

** Lead Break:

Riff A chord diagramFF x 4


Riff A chord diagramE MajorE x 1

Riff A chord diagramG+G x 1 (Sorry!  8(  )

Riff A chord diagramE MajorE x 1/2

Riff A chord diagramG+G x 1 (Sorry!  8(  )

Riff A chord diagramE MajorE x 2

Riff A chord diagramG+G x 4 (Sorry!  8(  )


Riff H x Lots!  (Keep playing until end.. Fade out)
                (Lead break starts after the first 8)

Thats it!!  Sorry about Riff G, but I don't have a Guitar or an overly musical
ear to transcribe it.. Besides it sounds pretty simple.. Email me if you transc.
it!


Heh! Heh!!  Now, That should keep a few of you amused!
Kev.  ;)

Almost there ...

Sign in to get your own page with links to favourite songs and more. You are just one click away...

Login with Facebook Login with Google