Log in

One click and you are in

Login with Facebook Login with Google

Why sign up and log in

Guitar Tabs Explorer
Obituary tabs for Gates to hell

Guitar tabs with lyrics

OBITUARY - GATES TO HELL
                           From the Album - SLOWLY WE ROT
                         Copyright - ROADRUNNER RECORDS 1989
                             Version 1.0 - Oct 13, 2002
For Questions, Comments, Newest Version, or Corrections contact
Inverted: at Inverted_one@hotmail.com

Check Out Death8699.com Metaltabs.com or dsrmusic.com for More
Transcriptions:http://www.Death8699.com http://www.Metaltabs.com
http://www.dsrmusic.com/metaltab

.  - palm mute           /  - slide up to
\  - slide down to       ~  - vibrato
h  - hammer on           b  - Bend
p  - pull off            Suffixes for bend
t  - tap                 f  - full bend    h - half bend
ph - pinched harmonic    q  - quarter bend t - tap bend
nh - natural harmonic    ^  - Hold bend    r release bend
*  - see comment         ~  - vibrato bend
x  - Stuccatto           () - ghost note, sustained note
,  - slight palm mute    <> - Trill
"  - tremolo note

Standard Tuning: "E"A"D"G"B"E"


Note: Slowly We Rot is the only Obituary album played in
      standard tuning. All of their other albums are in D.


Riff 1
|------------------------------------|
|------------------------------------|
|------------------------------------|
|------------------------------------|
|--22023333220233332202333366665555--|
|------------------------------------|


Riff 2
|------------------------------------|
|------------------------------------|
|------------------------------------|
|------------------------------------|
|------------------------------------|
|--11110000444400001111000066660000--|


Fill 1
|------------------------------|
|------------------------------|
|------------------------------|
|--3---2---------3---2---------|
|--3---0---------3---2---------|
|--1---0---------1---0---------|


Riff 3
|------------------------------------------------------------------|
|------------------------------------------------------------------|
|------------------------------------------------------------------|
|----------7-----6----------4-----3--------------------------------|
|----------5-----4----------2-----1----------6-----5----------3-3--|
|--0-0-0-0---0-0----0-0-0-0---0-0----0-0-0-0-4-0-0-3--0-0-0-0-1-1--|
   . . . .   . .    . . . .   . .    . . . .   . .    . . . .


Riff 4
|----------------------------------------------|
|----------------------------------------------|
|----------------------------------------------|
|----------------------------------------------|
|-------------------7-8-------------------5-6--|
|--0000000000000000-5-6--0000000000000000-3-4--|


Riff 5
|---------------------------------------|
|---------------------------------------|
|---------------------------------------|
|--6--------3----4----------------------|
|--6--------3----4----------------------|
|--4--------1----2----0000000000000000--|


Riff 6
|------------------------------------------------|
|------------------------------------------------|
|------------------------------------------------|
|------------------------------------------------|
|------------------------------------------------|
|--00000000000000003300332222222222222222332233--|


Riff 7
|------------------------------------------------|
|------------------------------------------------|
|------------------------------------------------|
|------------------------------------------------|
|------------------------------------------------|

Almost there ...

Sign in to get your own page with links to favourite songs and more. You are just one click away...

Login with Facebook Login with Google