Log in

One click and you are in

Login with Facebook Login with Google

Why sign up and log in

Guitar Tabs Explorer
Obituary bass tabs for Gates to hell

Bass tabs

Intro :
G|-----------------------------------------------------------------------|
D|-----------------------------------------------------------------------|x3
A|--2-2-0h2h3-3-3-3---2-2-0h2h3-3-3-3--2-2-0h2h3-3-3-3--6-6-6-6-5-5-5-5--|
E|-----------------------------------------------------------------------|

G|--------------------------------------------------------------------|
D|--------------------------------------------------------------------|x2
A|--------------------------------------------------------------------|
E|--1-1-1-1-0-0-0-0-4-4-4-4-0-0-0-0--1-1-1-1-0-0-0-0-6-6-6-6-0-0-0-0--|

G|----------------------------------------------------------------|
D|----------------------------------------------------------------|x2
A|--2-2-0-2-3-3-3--2-2-0-2-3-3-3--2-2-0-2-3-3-3--6-6-6-6-5-5-5-5--|
E|----------------------------------------------------------------|

G|----------|
D|----------|x2
A|----------|
E|--1---0~--|


Verse :
G|-----------------------------------------------------------------------|
D|-----------------------------------------------------------------------|x4
A|-----------5------4----------2------1----------------------------------|
E|--0-0-0-0----0-0----0-0-0-0----0-0-----0-0-0-0-4-0-0-3--0-0-0-0-1-(1)--|


Break :
G|-----|--------|--------|
D|-----|--------|--------|
A|-----|--------|--------|
E|--0--|--5--6--|--3--4--|

Verse :
G|---------------------------------------------------------------|
D|---------------------------------------------------------------|x4
A|---------------------------------------------------------------|
E|--0-0-0-0-0-0-0-0-0-0-0-0--5-6--0-0-0-0-0-0-0-0-0-0-0-0--3--4--|


Chorus :               x3     last one
G|---------------------------------------|-------------|
D|---------------------------------------|-------------|
A|---------------------------------------|-------------|
E|--4~---1--2---0-0-0-0-0-0-0-0-0-0-0-0--|--4~---1--2--|


Verse :
G|---------------------------------------------------------------|
D|---------------------------------------------------------------|x4
A|---------------------------------------------------------------|
E|--0-0-0-0-0-0-0-0-0-0-0-0--5-6--0-0-0-0-0-0-0-0-0-0-0-0--3--4--|

G|-------------|
D|-------------|
A|-------------|
E|--4~---1--2--|


Solo :
G|---------------------------------------------------------------|
D|---------------------------------------------------------------|x4
A|---------------------------------------------------------------|
E|--0-0-0-0-0-0-0-0-0-0-0-0-3p0p3-2-2-2-2-2-2-2-2-2-2-2-2-3p2p3--|


Ending :
G|-----|
D|-----|
A|-----|
E|--2--|

G|------------------------------------|
D|------------------------------------| play until fade out
A|------------------------------------|
E|--2-2-2-0h2h3-3-3-3--2-2-2-2-2-2-2--|

Almost there ...

Sign in to get your own page with links to favourite songs and more. You are just one click away...

Login with Facebook Login with Google