Log in

One click and you are in

Login with Facebook Login with Google

Why sign up and log in

Guitar Tabs Explorer
Obituary bass tabs for Find the arise

Bass tabs

Tuning: D Tuning (D G C F)

Difficulty: Novice


Tuning : D Standard
Intro :
G|--------|-------------|
D|--------|-------------|x2
A|--------|-------------|
E|--2--2--|--3---2---0--|

G|--------------------------------------------------|
D|--------------------------------------------------|x2
A|--------------------------------------------------|
E|--2--2--2--2--2--2--2--2--3--3--3--2--2--2--0--0--|


Verse :
G|--------------------------------------------------|
D|--------------------------------------------------|x4
A|--------------------------------------------------|
E|--2--2--2--2--2--2--2--2--3--3--3--2--2--2--0--0--|

Interlude :
G|-----------------------------------|----------------------------|
D|-----------------------------------|----------------------------|x2
A|-----------------------------------|----------------------------|
E|--0---0--0--0---1h2--1--1~---5--6--|--0---0--0--0---1h2--1--1~--|

G|--------------------------------------------------|
D|--------------------------------------------------|x4
A|--------------------------------------------------|
E|--2--2--2--2--2--2--2--2--3--3--3--2--2--2--0--0--|

G|--------------------------------------------------|
D|--------------------------------------------------|x2
A|--------------------------------------------------|
E|--4--4--4--4--4--4--4--4--3--3--3--4--4--4--6--6--|

G|------|
D|------|
A|------|
E|--0~--|

Solo :
G|-----------------------------------------|
D|-----------------------------------------|x2
A|-------2--3------------------------------|
E|--0~---------2---3~-----1--3~-----1--0~--|


Break :
G|--------------------|
D|--------------------|x2
A|--------------------|
E|--3---1---6--7---0--|


Solo 2 :
G|----------------------------------------|
D|----------------------------------------|x4
A|----------------------------------------|
E|--0--0--0--0--0--0--0--0--3---1---6--7--|

G|-----------------------------------|----------------------------|
D|-----------------------------------|----------------------------|x2
A|-----------------------------------|----------------------------|
E|--0---0--0--0---1h2--1--1~---5--6--|--0---0--0--0---1h2--1--1~--|


Solo end :
G|-------------------------------------|
D|-------------------------------------|
A|-------2--3--------------------------|
E|--0~---------2---3~-----1--3~-----1--|

G|----------------------------------------|
D|----------------------------------------|x2
A|----------------------------------------|
E|--0--0--0--0--0--0--0--0--3---1---6--7--|

Last verse :
G|--------|-------------|
D|--------|-------------|x2
A|--------|-------------|
E|--2--2--|--3---2---0--|

G|--------------------------------------------------|
D|--------------------------------------------------|x2
A|--------------------------------------------------|
E|--2--2--2--2--2--2--2--2--3--3--3--2--2--2--0--0--|

G|--------|
D|--------|
A|--------|
E|--2--2--|

Almost there ...

Sign in to get your own page with links to favourite songs and more. You are just one click away...

Login with Facebook Login with Google