Log in

One click and you are in

Login with Facebook Login with Google

Why sign up and log in

Guitar Tabs Explorer
Obituary bass tabs for Body bag

Bass tabs

Tuning: D Tuning (D G C F)

Difficulty: Novice


Tuning : D Standard
Intro :
G|---------------------------------------------------------------|
D|---------------------------------------------------------------|x2
A|-------5--4-----------4--3------------3--2-----------2--1------|
E|--0----------4--4--4---------3--3--3---------2--2--2--------1--|


Verse :
G|---------------------------------------------------------------|
D|---------------------------------------------------------------|x2
A|-------5--4-----------4--3------------3--2-----------2--1------|
E|--0----------4--4--4---------3--3--3---------2--2--2--------1--|


Chorus :
G|---------------------|------------------------|
D|---------------------|------------------------|x2
A|-----------3~----1~--|-----------3~----1---0--|
E|--0~---3~------------|--0~---3~---------------|


Verse :
G|---------------------------------------------------------------|
D|---------------------------------------------------------------|
A|-------5--4-----------4--3------------3--2-----------2--1------|
E|--0----------4--4--4---------3--3--3---------2--2--2--------1--|

G|------------------------------------------------------------------------|
D|------------------------------------------------------------------------|x3
A|---------------5--4-----------4--3------------3--2-----------2--1-------|
E|--0-0-0-0-0-0---------4--4--4---------3--3--3---------2--2--2--------1--|

Chorus :
G|-----------------------------------------------------------------------------|
D|-----------------------------------------------------------------------------|
A|-----------------------------------3-3-3-3-3-3-3-3--1-1-1-1---0-0-0-0-0-0-0--|
E|--0-0-0-0-0-0-0-0--3-3-3-3-3-3-3-3-------------------------------------------|

G|-------------------------------------------------------------------------------|
D|-------------------------------------------------------------------------------|
A|-----------------------------------3-3-3-3-3-3-3-3--1-1-1-1-1---1-1-1-1-1-1-1--|
E|--0-0-0-0-0-0-0-0--3-3-3-3-3-3-3-3---------------------------------------------|

G|------------------------------------------------------------------------------------|
D|------------------------------------------------------------------------------------|x2
A|-----------------------------------3-3-3-3-3-3-3-3---1-1-1-1-1-1-1-1-0-0-0-0-0-0-0--|
E|--0-0-0-0-0-0-0-0--3-3-3-3-3-3-3-3--------------------------------------------------|

Interlude :
G|---------------------------------------------------|
D|---------------------------------------------------|x4
A|--0-0-0-0-0-0-------------3-3-3-3-3-3--------------|
E|--------------2-2-2-2-2-2-------------1-1-1-1-1-1--|

G|----------------------------------------------------------------|
D|----------------------------------------------------------------|x2
A|------------2-2-2-2-2-3-3-3-3-3------------3-3-3-3-3-2-2-2-2-2--|
E|--2-2-2-2-1----------------------2-2-2-2-1----------------------|

G|---------------------------------------------------|
D|---------------------------------------------------|x4
A|--0-0-0-0-0-0-------------3-3-3-3-3-3--------------|
E|--------------2-2-2-2-2-2-------------1-1-1-1-1-1--|

G|----------------------------------------------------------------|
D|----------------------------------------------------------------|x2
A|------------2-2-2-2-2-3-3-3-3-3------------3-3-3-3-3-2-2-2-2-2--|  end with an open D string
E|--2-2-2-2-1----------------------2-2-2-2-1----------------------|


Verse :
G|---------------------------------|
D|---------------------------------|x8
A|---------------------------------|
E|--0-0-0-0-0-0---2~---1~----3--4--|

G|--------------------|
D|--------------------|last one
A|--------------------|
E|--0-0-0-0-0-0---2~--|

Next riff :
G|---------------------------------------------------|
D|---------------------------------------------------|x4
A|----------------------------------------------1-2--|
E|--0-0-0-0--1-1--0-0-0-0--1-1--0-0-0-0--1-1--0------|

(little break after the 4th time)

G|------------------------------------------------------|
D|------------------------------------------------------|
A|----------------------------------------------1-2-----|
E|--0-0-0-0--1-1--0-0-0-0--1-1--0-0-0-0--1-1--0------2--|

                           second time always end with this
G|---------------------------------------------------|-----|
D|---------------------------------------------------|-----|x4
A|----------------------------------------------1-2--|-----|
E|--0-0-0-0--1-1--0-0-0-0--1-1--0-0-0-0--1-1--0------|--2--|

Interlude :
G|---------------------------------------------------|
D|---------------------------------------------------|x3
A|--0-0-0-0-0-0-------------3-3-3-3-3-3--------------|
E|--------------2-2-2-2-2-2-------------1-1-1-1-1-1--|

G|----------------------------------------------------------------|
D|----------------------------------------------------------------|x2
A|------------2-2-2-2-2-3-3-3-3-3------------3-3-3-3-3-2-2-2-2-2--|
E|--2-2-2-2-1----------------------2-2-2-2-1----------------------|

G|---------------------------------------------------|
D|---------------------------------------------------|x4
A|--0-0-0-0-0-0-------------3-3-3-3-3-3--------------|
E|--------------2-2-2-2-2-2-------------1-1-1-1-1-1--|


Break :
G|------------|
D|------------|x5
A|------------|
E|--2-2-2-1~--|


Solo :
G|------------------------|
D|------------------------|x4
A|------------3~----1--0--|
E|--0~---3~---------------|


Intro riff :
G|---------------------------------------------------------------|
D|---------------------------------------------------------------|
A|-------5--4-----------4--3------------3--2-----------2--1------|
E|--0----------4--4--4---------3--3--3---------2--2--2--------1--|

G|------------------------------------------------------------------------|
D|------------------------------------------------------------------------|x3
A|---------------5--4-----------4--3------------3--2-----------2--1-------|
E|--0-0-0-0-0-0---------4--4--4---------3--3--3---------2--2--2--------1--|


Ending :
G|-------------------------------|
D|-------------------------------|
A|-----------3~----1--0----------|
E|--0~---3~------------------0~--|

Almost there ...

Sign in to get your own page with links to favourite songs and more. You are just one click away...

Login with Facebook Login with Google