Log in

One click and you are in

Login with Facebook Login with Google

Why sign up and log in

Guitar Tabs Explorer
Obituary tabs for Back to one

Guitar tabs with lyrics

OBITUARY - BACK TO ONE
                          From the Album - THE END COMPLETE
                         Copyright - ROADRUNNER RECORDS 1992
                                Version 1.1 Oct 1, 2002

Origional Transcription by: AJMB 01/10/97
Revisions By: James Williams (INVERTED)

For Questions, Comments, Newest Version, or Corrections, contact
Inverted at Inverted_one@hotmail.com or AJMB at toti@caleida.pt

Check Out Death8699.com or Metaltabs.com for More Transcriptions:
http://www.Death8699.com http://www.Metaltabs.com

.  - palm mute           /  - slide up to
  - slide down to       ~  - vibrato
h  - hammer on           b  - bend
p  - pull off            Suffixes for bend ^
ph - pinched harmonic     f - full bend    h - half bend
*  - see comment          r - release      t - tap bend
X  - Stuccatto            ~ - vibrato bend q - quarter bend
,  - slight palm mute    () - ghost note, sustained note
"  - Tromolo note         - Trill


Tuning: "D"G"C"F"A"D


Riff 1
|-------------------------------------------------------------------|
|-------------------------------------------------------------------|
|-------------------------------------------------------------------|
|--3---------------6-------5-------3---------------6-------8--------|
|--3---------------6-------5-------3---------------6-------8--------|
|--1--000000000000-4--0000-3--0000-1--000000000000-4--0000-6--0000--|


Riff 2
|------------------------------------|
|------------------------------------|
|------------------------------------|
|------------------------------------|
|------------------6666666655555555--|
|--6666555599998888------------------|


Riff 3
|----------------------------------------------------------------|
|----------------------------------------------------------------|
|----------------------------------------------------------------|
|--------------------------------5----------------------------5--|
|--------8/9------5/6------3-----3----------8/9------5/6------3--|
|--0-0-0-6/7--0-0-3/4--0-0-1-0-0-3----0-0-0-6/7--0-0-3/4--0-0-3--|
   . . .      . .      . .   . .      . . .      . .      . .


Riff 4
|---------------------------------------------------------|
|---------------------------------------------------------|
|---------------------------------------------------------|
|-------------------4-----------------------5------5------|
|--2------2------3--2--4--5---2------2------3------5------|
|--0--0-0-0--0-0-1-----2--3---0--0-0-0--0-0-3------3------|
      . .    . .                 . .    . .


Riff 5-A
|---------------------------------------|
|---------------------------------------|
|---------------------------------------|
|--------6----5----------3---------4----|
|--------6----5----------1----3----2----|
|--0--0--4----3----0--0-------1---------|
   .  .            .  .


Riff 5-B
|---------------------------------------|
|---------------------------------------|
|---------------------------------------|
|--------6----5----------3---------4----|
|--------6----5----------1----3----2----|
|--0--0--4----3----0--0-------1----2----|
   .  .            .  .

Fill 1
|----------------|
|----------------|
|----------------|
|--4-------------|
|--2-------------|
|--2--------19/--|


Riff 6
|--------------------------------------------------------------------|
|--------------------------------------------------------------------|
|--------------------------------------------------------------------|
|--------------------------------------------------------------------|
|--------------------------------------------------------------------|
|--1111111111111111444444444444444400000000000000003333333322222222--|


End
|----------------------------------------------------------------------|
|----------------------------------------------------------------------|
|----------------------------------------------------------------------|
|--3---------------6-------5-------3---------------6-------8-------2x--|
|--3---------------6-------5-------3---------------6-------8-------2x--|
|--1--000000000000-4--0000-3--0000-1--000000000000-4--0000-6--0000-0x--|


Lyrics Corrected By:Inverted

A chord diagramA augmentedA stab in the back with a fearless knife
With no regard to an innocent life
Ruthlessly killing, what terrible fun
Now that you're falling with nowhere to run

Back to the one who you fear is dead
The nightmare returns, those thoughts in your head
Warmly embraced, you will soon go away
The blood-soaked hands that are destitute, say...

We’re back to one

You're falling, you're falling to your death down below
And dying, ease pain, no one will ever know
You're crawling toward the goodness of the light
And crying out, out to those who may stop this, this fight


Check out my other tabs by: Deicide, Obituary, Hypocrisy,
Grave, Catastrophic, Six Feet Under, Incantation, Death and
Cannibal Corpse.

Almost there ...

Sign in to get your own page with links to favourite songs and more. You are just one click away...

Login with Facebook Login with Google