Search tabs and chords

Search for song, artist or band

Log in

One click and you are in

Login with Facebook Login with Google

Why sign up and log in

Guitar Tabs Explorer
Agnes Obel guitar chords for Citizen of glass

Guitar chords

Agnes Obel
"Citizen of Glass"
Citizen of Glass (2016)
Note: I'm not a guitarrist, so the transcription might not be %100; I made
it on Guitar Pro with automatic positioning of the fingers, so bear with me.

Intro:
Bm chord diagramBmBm                                                 E chord diagramEE
Q     Q        E chord diagramEE   E chord diagramEE   Q        E chord diagramEE   E chord diagramEE   E chord diagramEE   E chord diagramEE     Q     Q
e||--------14----|--12--14--------|--12--14----------|--------14----|
B||--12----------|----------12----|----------12------|--------------|
B||--------------|----------------|--------------14--|--13----------|
B||--------------|----------------|------------------|--------------|
B||--------------|----------------|------------------|--------------|
E||--------------|----------------|------------------|--------------|
Bm chord diagramBmBm
E chord diagramEE   E chord diagramEE   Q        E chord diagramEE   E chord diagramEE   Q        Q     Q        E chord diagramEE   E chord diagramEE   Q
e|--12--14--------|--12--14--------|--17----14----|--12--14--------|
B|----------12----|----------12----|--------------|----------12----|
G|----------------|----------------|--------------|----------------|
D|----------------|----------------|--------------|----------------|
A|----------------|----------------|--------------|----------------|
E|----------------|----------------|--------------|----------------|
E chord diagramEE
E chord diagramEE   E chord diagramEE   E chord diagramEE   E chord diagramEE      Q     Q        E chord diagramEE   E chord diagramEE   Q        E chord diagramEE   E chord diagramEE   Q
e|--12--14----------|--------14----|--12--14--------|--12--14--------||
B|----------12------|--------------|----------12----|----------12----||
G|--------------14--|--13----------|----------------|----------------||
D|------------------|--------------|----------------|----------------||
A|------------------|--------------|----------------|----------------||
E|------------------|--------------|----------------|----------------||

Verse:
Bm chord diagramBmBm
Rend a black drop from my heart
E chord diagramEE
With the weight of days
Bm chord diagramBmBm
The end of time has just begun
E chord diagramEE
I hear it call your name

G chord diagramGG                Em chord diagramEmEm
And no straining of the string
G chord diagramGG                Em chord diagramEmEm
Can reverse what will begin

Instrumental:
Bm chord diagramBmBm E chord diagramEE Bm chord diagramBmBm E chord diagramEE

Chorus:
Bm chord diagramBmBm
Some let go and some hold on
E chord diagramEE
There is no mistake
Bm chord diagramBmBm
If I could wash all ill away
E chord diagramEE
Tell me would you stay?

G chord diagramGG       Em chord diagramEmEm
And no lovers sin
G chord diagramGG                Em chord diagramEmEm
Can reverse what will begin

Outro:
Bm chord diagramBmBm                                                 E chord diagramEE
Q     Q        E chord diagramEE   E chord diagramEE   Q        E chord diagramEE   E chord diagramEE   E chord diagramEE   E chord diagramEE     Q     Q
e||--------14----|--12--14--------|--12--14----------|--------14----|
B||--12----------|----------12----|----------12------|--------------|
B||--------------|----------------|--------------14--|--13----------|
B||--------------|----------------|------------------|--------------|
B||--------------|----------------|------------------|--------------|
E||--------------|----------------|------------------|--------------|

Bm chord diagramBmBm
E chord diagramEE   E chord diagramEE   Q        E chord diagramEE   E chord diagramEE   Q        Q     Q        E chord diagramEE   E chord diagramEE   Q
e|--12--14--------|--12--14--------|--17----14----|--12--14--------|
B|----------12----|----------12----|--------------|----------12----|
G|----------------|----------------|--------------|----------------|
D|----------------|----------------|--------------|----------------|
A|----------------|----------------|--------------|----------------|
E|----------------|----------------|--------------|----------------|

E chord diagramEE
E chord diagramEE   E chord diagramEE   E chord diagramEE   E chord diagramEE      Q     Q        E chord diagramEE   E chord diagramEE   Q        E chord diagramEE   E chord diagramEE   Q
e|--12--14----------|--------14----|--12--14--------|--12--14--------||
B|----------12------|--------------|----------12----|----------12----||
G|--------------14--|--13----------|----------------|----------------||
D|------------------|--------------|----------------|----------------||
A|------------------|--------------|----------------|----------------||
E|------------------|--------------|----------------|----------------||


************************************

| Q - quarter
| E chord diagramEE - 8th

Almost there ...

Sign in to get your own page with links to favourite songs and more. You are just one click away...

Login with Facebook Login with Google