Log in

One click and you are in

Login with Facebook Login with Google

Why sign up and log in

Guitar Tabs Explorer
Oasis tabs for Take me away

Guitar tabs

Take me Away

oasis
A chord diagramA augmentedA benefit for the Kosovo Refugies
(Electric guitar part)

need a phone...
e-----------------2-------2-------2--------------2-------------7---
b------------------------------------------------------------------
g----------------------------1/2------------1/2-----------4/7------
b------------------------------------------------------------------
a------------------------------------------------------------------
E------------------------------------------------------------------

e-------2----------2------------2-------------7-----------9------9-
b------------------------------------------------------------------
g--1/2--------1/2----------1/2-----------4/7---------7/9----7/9----
b------------------------------------------------------------------
a------------------------------------------------------------------
E------------------------------------------------------------------

e------2------------9------------9-------------2------
b-----------------------------------------------------
g-1/2----------7/9----------7/9-----------1/2---------
b-----------------------------------------------------
a-----------------------------------------------------
E-----------------------------------------------------

(Chorus):
So take me away
e-----2-----2-----------4-----4-----------7-----7------
b-------3-----3-----------5-----5-----------8-----8----
g-1/2-----2-----2---2/4-----4-----4---4/7-----7-----7--
b------------------------------------------------------
a------------------------------------------------------
E------------------------------------------------------

              (and repeat...)
e-----9------------9----------------2-----2------------
b-------10-----------10---------------3-----3----------
g-7/9------9---7/9------9------9/2------2-----2--------
b------------------------------------------------------
a------------------------------------------------------
E------------------------------------------------------

(Ending part):                                 (and repeat...)
e------2--------------2----------------2------------------2---
b-------------------------------------------------------------
g-1/2------------1/2--------------1/2----------------1/2------
b-------------------------------------------------------------
a-------------------------------------------------------------
E-------------------------------------------------------------

Tabbed by: Roberto Becerra
For comments or corrections write to: rba1@hotmail.com

Other versions of Take Me Away

Take me awayChords

Almost there ...

Sign in to get your own page with links to favourite songs and more. You are just one click away...

Login with Facebook Login with Google