Log in

One click and you are in

Login with Facebook Login with Google

Why sign up and log in

Guitar Tabs Explorer
Oasis tabs for Slide away live

Solo tabs

-------------------------------------------------------------------------------
                Slide Away - Oasis (live at iTunes 2009)
-------------------------------------------------------------------------------
Tabbed by: JWIII
E-mail: kristian.kolar.iii@gmail.com
Tuning: Standard (EADGBE)

Part 1.
|-----------------------------------------------------------------------------------
|-----------------8---8-10-12-10-8--------------8---8-10\12--10-8-----------8-10b11-
|--7/9--9-9-9-9-9---9--------------7/9--9-9-9-9---9---------------9-9-9-9-9---------
|-----------------------------------------------------------------------------------
|-----------------------------------------------------------------------------------
|-----------------------------------------------------------------------------------

Part 2. (x2)
|---------------------------------------------------------------------------
|-----------------------------------------------------------------8---------
|-------5-5--------5--------5-5--------5--------5-5------5-7-5-7b--7b9-5---5
|--5h7------7-5h7----7-5h7------7-5h7----7-5h7------5h7------------------7--
|---------------------------------------------------------------------------
|---------------------------------------------------------------------------

Do the bending part twice in the solo (starts from 7b)

Noel ends the solo with bending the A chord diagramBB string on 9th fret, and then he ends with usual Am. (x02210)

************************************

| /   slide up
| \   slide down
| h   hammer-on
| p   pull-off
| ~   vibrato
| +   harmonic
| x   Mute note
| b   Bend
| pb  Pre-bend
| br  Bend release
| pbr Pre-bend release
| brb Bend release bend

Almost there ...

Sign in to get your own page with links to favourite songs and more. You are just one click away...

Login with Facebook Login with Google