Log in

One click and you are in

Login with Facebook Login with Google

Why sign up and log in

Guitar Tabs Explorer
Oasis tabs for Little by little

Guitar tabs

Oasis

Little by Little (Noel Gallagher)
>From the album 'Heathen Chemistry'
Intro

A chord diagramC majorC A chord diagramG+G A chord diagramE minorEm A chord diagramA augmentedA A chord diagramE minorEm A chord diagramA augmentedA


Verse

A chord diagramE minorEm A chord diagramA augmentedA


Bridge

A chord diagramD MajorD A chord diagramG+G G/F# A chord diagramE minorEm A chord diagramA augmentedA


Chorus

A chord diagramG+G A chord diagramD MajorD A chord diagramA augmentedA A chord diagramE minorEm x3
A chord diagramG+G A chord diagramD MajorD A chord diagramC majorC A chord diagramG+G A chord diagramA augmentedA


Solo
					 A chord diagramG+G    A chord diagramD MajorD
E---------------------------------------3-3--2-2
B---------------------------------------3-3--3-3
G---------------------------------------0-0--2-2
D-------------11-12-12br-11-------------0-0--0-0
A-10h12-12-12---------------10h12-12-12-2-2--X-X
E---------------------------------------3-3--X-X

					 A chord diagramG+G    A chord diagramD MajorD
E---------------------------------------3-3--2-2
B---------------------------------------3-3--3-3
G---------------------------------------0-0--2-2
D-------------11-12-12br-11-------------0-0--0-0
A-10h12-12-12---------------10h12-12-12-2-2--X-X
E---------------------------------------3-3--X-X

G-------------------------------------11-12-12s14-14
D-10h12-12-12-10h12-12-12-10h12-12-12---------------
A---------------------------------------------------

G-------------------------------------14~14~14~14~14~14~14b-r
D-10h12-12-12-10h12-12-12-10h12-12-12------------------------
A------------------------------------------------------------


Outro fill

play loadsa times:

B---------------------------------------------------------15-15-15-15
G-11h12-12-12-12s14--11h12-12-12-12s14--11h12-12-12-12s14------------

Last time through:

B-15-15-15-15br-15-17-15
G-----------------------


Tabbed by Jake Smart

Other versions of Little By Little

Little by littleChords

Almost there ...

Sign in to get your own page with links to favourite songs and more. You are just one click away...

Login with Facebook Login with Google