Log in

One click and you are in

Login with Facebook Login with Google

Why sign up and log in

Guitar Tabs Explorer
Oasis tabs for Hung in a bad place

Guitar tabs with lyrics

HUNG IN A chord diagramA augmentedA BAD PLACE
(by Gem Archer)

found on "Heathen Chemistry"

Tabbed by Muratahan Aykol <muratahan@ttnet.net.tr>

This song is very nice and easy-to-play
The only cord progression is A chord diagramF#F# and A chord diagramBB
There are some little riffs tabbed below
Most probably Noel plays with a capo on
the 2nd fret (so he plays E(022100) and A(x02220))
and Gem plays it without a capo F#(244322) and B(799877)
Songs starts with A chord diagramF#F# and then A chord diagramBB (play this for two times and after that
song starts)
and continues on the same progression.
The following riff is played for several times and its very easy to
hear it.

Riff 1
B------5---5-
G----6---6---

Tha most amazing part is solo. It consists of two parts.
(Don't forget that there's no change in A chord diagramF#F# A chord diagramBB progression throughout the
song.)


Solo Part 1
e----------------------------------------------------------------------
B-10~---10--7~----10--7~---10--7~------10--7~----10--7~-----10b11~--7^-
G---------------8-------------------8-------------------8--------------
D----------------------------------------------------------------------
A----------------------------------------------------------------------
E----------------------------------------------------------------------

Then Part 2 (This is cool!)

e-------------------
B---4b6r4p2---------
G------------4------ Play this for several times and play the following
D------------------

D------2-----2-----2------2-
A--2h4---2h4---2h4---2h4----


Riff 2 (this one is played at the and it's obvious. you'll hear it well)

G-------------------2---------------------------------------
D-------------2--4----4--2----------------------------------
A-------2--4----------------4--2----------------------------
E--2--5-----------------------------5--2--------------------

thats all
find the lyrics and play it :)

Other versions of Hung In A Bad Place

Hung in A Bad PlaceChords

Almost there ...

Sign in to get your own page with links to favourite songs and more. You are just one click away...

Login with Facebook Login with Google